PrimaNota.ru - самый крупный в мире бесплатный архив песенных текстов, аккордов, табулатур и нот


Within Temptation - Blooded - таба, видео

Регистрация Запомнить меня
Войти через:  Facebook Google Twitter Vk Yandex Mail.ru

Within Temptation - Blooded - таба, видео

Печатать
Просмотров: 160
Check out the official Within Temptation Website at http://www.within-temptation.com

() - palm mute		^ - bend 1 step 	h - hammer on
[] - little feedback	p - pull off		s - slide

Within Temptation - Blooded

Tune to D (D,G,C,F,A,D)

Riff 1
|----------------------------------------------------------------------|
|----------------------------------------------------------------------|
|----------------------------------------------------------------------|
|----------------------------------(2)(2)(2)(2)(2)(2)(2)(2)(2)---------|
|--(2)(2)(2)(2)(2)(2)(2)(2)(2)-2-3-(0)(0)(0)(0)(0)(0)(0)(0)(0)-3p2-----|
|--(0)(0)(0)(0)(0)(0)(0)(0)(0)-------------------------------------3---|
|
|----------------------------------------------------------------------|
|----------------------------------------------------------------------|
|----------------------------------------------------------------------|
|----------------------------------(2)(2)(2)(2)(2)(2)------------------|
|--(2)(2)(2)(2)(2)(2)(2)(2)(2)-2-3-(0)(0)(0)(0)(0)(0)-(3)-(3)-(3)------|
|--(0)(0)(0)(0)(0)(0)(0)(0)(0)------------------------(1)-(1)-(1)------|
						     |
						     |-----------------| 2nd time
						     |-----------------|
						     |-----------------|
						     |-----------------|
						     |-3---------------|
						     |-1---------------|

						     |-----------------| 3rd time
						     |-----------------|
						     |-----------------|
						     |-----------------|
						     |-3--3--3--3------|
						     |-1--1--1--1------|


Riff 2
|------------------------------------------------|
|------------------------------------------------|
|------------------------------------------------|
|------------------------------------------------|
|--7--(7)(7)(7)-5--5(5)(5)-3--3(3)(3)-2--3-3-3---|
|--5--(5)(5)(5)-3--3(3)(3)-1--1(1)(1)-0----------|
|
|----------------------------------------------------|
|----------------------------------------------------|
|----------------------------------------------------|
|----------------------------------------------------|
|--7--7(7)(7)-5--5(5)(5)-3--3(3)(3)-2--(2)-(2)-(2)---|
|--5--5(5)(5)-3--3(3)(3)-1--1(1)(1)-0--(0)-(0)-(0)---|


Riff 3
|------------------------------------------------------------------------------------------|
|------------------------------------------------------------------------------------------|
|------------------------------------------------------------------------------------------|
|--7--(5)(5)(5)7--------------------------(5)(5)(5)7--(5)(5)(5)7---------------------------|
|--5--(3)(3)(3)5--(2)(2)(2)2--(3)(2)(2)2--(3)(3)(3)5--(3)(3)(3)5--(5)(5)(5)7--(5)(5)(5)7---|
|-----------------(0)(0)(0)0--(1)(0)(0)0--------------------------(3)(3)(3)5--(3)(3)(3)5---|
|
|---------------------------------------------------------------------------------------------|
|---------------------------------------------------------------------------------------------|
|---------------------------------------------------------------------------------------------|
|--(5)(5)(5)7--(5)(5)(5)7--------------------------(5)(5)(5)7--(5)(5)(5)7---------------------|
|--(3)(3)(3)5--(3)(3)(3)5--(2)(2)(2)2--(3)(2)(2)2--(3)(3)(3)5--(3)(3)(3)5--(5)(5)(5)7---7s5---|
|--------------------------(0)(0)(0)0--(1)(0)(0)0--------------------------(3)(3)(3)5---5s3---|


Repeat Riff 1

Riff 4
|-------------------------------------------------|
|-------------------------------------------------|
|-------------------------------------------------|
|-------------------------------------------------|
|--7--7(7)(7)----9(9)(9)-10-10(10)(10)-12--12s7---|
|--5--5(5)(5)-7--7(7)(7)-8--8-(8)-(8)--10--10s5---|


Riff 5
|--------------------------------------------|
|--------------------------------------------|
|--------------------------------------------|
|--7--(7)(7)(7)-7--(7)(7)(7)-----------------|
|--5--(5)(5)(5)-5--(5)(5)(5)-2--(2)(2)(2)-2--|
|----------------------------0--(0)(0)(0)-0--|
|
|------------------------------------------------------------------|
|------------------------------------------------------------------|
|------------------------------------------------------------------|
|------------------------------------------------------------------|
|--(2)(2)(2)-3--(3)(3)(3)-3--(3)(3)(3)-5--(5)(5)(5)-5--(5)(5)(5)---|
|--(0)(0)(0)-1--(1)(1)(1)-1--(1)(1)(1)-3--(3)(3)(3)-3--(3)(3)(3)---|
|
|--------------------------------------------|
|--------------------------------------------|
|--------------------------------------------|
|--7--(7)(7)(7)-7--(7)(7)(7)-9--(9)(9)(9)-9--|
|--5--(5)(5)(5)-5--(5)(5)(5)-7--(7)(7)(7)-7--|
|--------------------------------------------|
|
|--------------------------------------------------------------------------------|
|--------------------------------------------------------------------------------|
|--------------------------------------------------------------------------------|
|--(9)(9)(9)-10-(10)(10)(10)-10--(10)(10)(10)12--(12)(12)(12)-12--(12)(12)(12)---|
|--(7)(7)(7)-8--(8)-(8)-(8)--8---(8)-(8)-(8)-10--(10)(10)(10)-10--(10)(10)(10)---|
|--------------------------------------------------------------------------------|


Riff 6
Listen to the song to hear how many times you got to play this
and when you have to play an open chord.
|--------|
|--------|
|--------|
|--------|
|--(2)---|
|--(0)---|
Добавлено: 09.07.2013
Другие материалы по этой песне:
  • Аккорды и текст

Страница создана 09.07.2013
http://primanota.ru/within-temptation/blooded-chords.htm
Привет, Гость.
Предлагаем пройти революционный курс по гитаре.
Подарок от PrimaNota.Ru, забирай!