PrimaNota.ru - самый крупный в мире бесплатный архив песенных текстов, аккордов, табулатур и нот


With The Punches - Hulk Hands - таба, видео

Регистрация Запомнить меня
Войти через:  Facebook Google Twitter Vk Yandex Mail.ru

With The Punches - Hulk Hands - таба, видео

Печатать
Просмотров: 119
-----------------------------------------------------------------------------
                     Hulk Hands - With the Punches
-----------------------------------------------------------------------------

Tabbed by: x3ricxblink182

Email: x3ricxblink182@aim.com

Tuning: Drop D

Great song. enjoy!



Intro:

(Bass)

0:08 –

E|-------------------------------------------------|
B|-------------------------------------------------|
G|------------8x-------3~~~------------------------| 
D|---5x-------8x-------3~~~--3~~~------------------|
A|---5x-------6x-------1~~~--3~~~----*Pickslide*---|
D|---5x----------------------3~~~------------------|


Verse:

0:17 –

E|---------------------------------------------|
B|---------------------------------------------|
G|-333333333333333-----------------------------| 
D|-333333333333333-33333-11111111111111111111--|
A|-111111111111111-33333-11111111111111111111--|
D|-----------------33333-11111111111111111111--| x2


Pre Chorus:

0:34 -

E|-----------------------------------------------------|
B|-----------------------------------------------------|
G|-55555555-7--3333333333-55555555-7--33333-66666666---| 
D|-xxxxxxxx-x--xxxxxxxxxx-xxxxxxxx-x--xxxxx-xxxxxxxx---|
A|-33333333/5-\1111111111—33333333/5-\11111/44444444---|
D|-----------------------------------------------------|



Chorus:

0:44 –

Guitar 1:

E|--------------------------------------------------|
B|--------------------------------------------------|
G|-333333333333333----------------------------------| 
D|-333333333333333-11111-33333--55555555-33333333---|
A|-111111111111111-11111-33333--55555555-33333333---|
D|-----------------11111-33333-/55555555-33333333---| x2

Guitar 2:

E|-----------------------------------------------|
B|----6--6-6h8-6--------6---6h8-6---6---6h8-6----|
G|---7-----------5-6------7-------5---7----------| 
D|--8--8--------------8--------------------------|
A|-----------------------------------------------|
D|-----------------------------------------------| x2


Post-Chorus:

1:00 –


E|-------------------------------------------------|
B|-------------------------------------------------|
G|--333333-7777-8-5555555--888-7-3333333-5555555---| 
D|--xxxxxx-xxxx-x-xxxxxxx--xxx-x-xxxxxxx-xxxxxxx---|
A|--111111-5555/6-3333333--666\5-1111111-3333333---|
D|-------------------------------------------------|


Verse:

1:10 –

E|---------------------------------------------|
B|---------------------------------------------|
G|-333333333333333-----------------------------| 
D|-333333333333333-33333-11111111111111111111--|
A|-111111111111111-33333-11111111111111111111--|
D|-----------------33333-11111111111111111111--| x2


Pre Chorus:

1:27 -

E|-----------------------------------------------------|
B|-----------------------------------------------------|
G|-55555555-7--3333333333-55555555-7--33333-66666666---| 
D|-xxxxxxxx-x--xxxxxxxxxx-xxxxxxxx-x--xxxxx-xxxxxxxx---|
A|-33333333/5-\1111111111—33333333/5-\11111/44444444---|
D|-----------------------------------------------------|


Chorus:

1:35 -

Guitar 1:

E|--------------------------------------------------|
B|--------------------------------------------------|
G|-333333333333333----------------------------------| 
D|-333333333333333-11111-33333--55555555-33333333---|
A|-111111111111111-11111-33333--55555555-33333333---|
D|-----------------11111-33333-/55555555-33333333---| x2

Guitar 2:

E|-----------------------------------------------|
B|----6--6-6h8-6--------6---6h8-6---6---6h8-6----|
G|---7-----------5-6------7-------5---7----------| 
D|--8--8--------------8--------------------------|
A|-----------------------------------------------|
D|-----------------------------------------------| x2


Bridge:

1:53 –

“Good luck with the woulda-coulda shit…”

E|-------------------------------------------|
B|--6~-----------------------6~---66h86------|
G|----5~-----------------------7~------------| 
D|------8~---8h10-8-10/12~--------------8~---|
A|-------------------------------------------|
D|-------------------------------------------|

E|--3/555-66-5------/6-5-66/8-6-5---13~----------------|
B|-------------8-6----------------------13~--11~--10~--|
G|-----------------------------------------------------| 
D|-----------------------------------------------------|
A|-----------------------------------------------------|
D|-----------------------------------------------------|


Post-Chorus:

2:10 –


E|-------------------------------------------------|
B|-------------------------------------------------|
G|--333333-7777-8-5555555--888-7-3333333-5555555---| 
D|--xxxxxx-xxxx-x-xxxxxxx--xxx-x-xxxxxxx-xxxxxxx---|
A|--111111-5555/6-3333333--666\5-1111111-3333333---|
D|-------------------------------------------------| x2


Outro:

2:27 –

E|--------------------------------------|
B|--------------------------------------|
G|-3~-----------33-3-3------------------| 
D|-3~--0~--1~---xx-x-x---5~--3~--1~~~---|
A|-1~--0~--1~---11-1-1---5~--3~--1~~~---|
D|-----0~--1~------------5~--3~--1~~~---| x2


Every question weighs a ton...

Is this so wrong that it can't be undone?


***********************************************
Добавлено: 27.04.2012
Другие материалы по этой песне:
  • Аккорды и текст

Страница создана 27.04.2012
http://primanota.ru/with-the-punches/hulk-hands-chords.htm
Привет, Гость.
Предлагаем пройти революционный курс по гитаре.
Подарок от PrimaNota.Ru, забирай!