PrimaNota.ru - самый крупный в мире бесплатный архив песенных текстов, аккордов, табулатур и нот


With One Last Breath - Down The Darkest Road - таба, видео

Регистрация Запомнить меня
Войти через:  Facebook Google Twitter Vk Yandex Mail.ru

With One Last Breath - Down The Darkest Road - таба, видео

Печатать
Просмотров: 72
With One Last Breath - Down the Darkest Road
Album: Wake the Dead EP
Year: 2013

Tuning: Drop C
All parts and all guitars.


Tabbed by ADVER



Intro (Clean) 
D|------------------------------------------------------------------------------------------|
A|------------------------------------------------------------------------------------------|
F|-1010101010-141414-121212-14-12121212-101010101010-55-101010-999-777-55-99999-10101010-12-|
C|--x-x-x-x-x--x-x-x--x-x-x--x--x-x-x-x--x-x-x-x-x-x-xx--x-x-x-xxx-xxx-xx-xxxxx--x-x-x-x--x-|
G|--8-8-8-8-8-121212-101010-12-10101010--8-8-8-8-8-8-33--8-8-8-777-555-33-77777--8-8-8-8-10-|
C|------------------------------------------------------------------------------------------|


D|---------------------------------------------------------------------------------------|
A|---------------------------------------------------------------------------------------|
F|-1010101010-141414-121212-14-12121212-101010101010-55-101010-999-777-55-99999-77-55-7~-|
C|--x-x-x-x-x--x-x-x--x-x-x--x--x-x-x-x--x-x-x-x-x-x-xx--x-x-x-xxx-xxx-xx-xxxxx-xx-xx-x--|
G|--8-8-8-8-8-121212-101010-12-10101010--8-8-8-8-8-8-33--8-8-8-777-555-33-77777-55-33-5~-|
C|---------------------------------------------------------------------------------------|



Intro (Clean) Harmony
D|----------------------------------------------------------------------------------------------|
A|----------------------------------------------------------------------------------------------|
F|-141414-101010-999-17-151515151515-141414-101010-141414-121212-101010-121212121212-1414141414-|
C|--x-x-x--x-x-x-xxx--x--x-x-x-x-x-x--x-x-x--x-x-x--x-x-x--x-x-x--x-x-x--x-x-x-x-x-x--x-x-x-x-x-|
G|-121212--8-8-8-777-15-131313131313-121212--8-8-8-121212-101010--8-8-8-101010101010-1212121212-|
C|----------------------------------------------------------------------------------------------|


D|------------------------------------------------------------------------------------------------|
A|------------------------------------------------------------------------------------------------|
F|-141414-101010-999-17-151515151515-141414-101010-141414-121212-101010-999-12121212-1010--99-10~-|
C|--x-x-x--x-x-x-xxx--x--x-x-x-x-x-x--x-x-x--x-x-x--x-x-x--x-x-x--x-x-x-xxx--x-x-x-x--x-x--xx--x--|
G|-121212--8-8-8-777-15-131313131313-121212--8-8-8-121212-101010--8-8-8-777-10101010--8-8--77--8~-|
C|------------------------------------------------------------------------------------------------|


Pre-Verse Powerchords (Figure the Let-Rings and Palm Mute Chugging)
D|-----|
A|-----|
F|---3-|
C|-0-3-|
G|-0-1-|
C|-0---|


Pre-Verse Pull-Offs
D|--------------------------------------------------------------------------|
A|--------------------------------------------------------------------------|
F|--------------------------------------------------------------------------|
C|-00-15p00-14p00-10p00-10p00-10h12-000-15p00-17p00-14p00-14p00-14h15p14----|
G|-----------------------------------------------------------------------15-|
C|--------------------------------------------------------------------------|

Pre-Verse Pull-Offs Harmony
D|-------------------------------------------------------------------------|
A|-------------------------------------------------------------------------|
F|-------------------------------------------------------------------------|
C|-00-19p00-17p00-14p00-14p00-14h15-000-19p00-20p00-17p00-17p00-17h19p17---|
G|----------------------------------------------------------------------19-|
C|-------------------------------------------------------------------------|



Verse Main Riff
D|-------------------------------------------------------------------------------|
A|-------------------------------------------------------------------------------|
F|-------------------------------------------------------------------------------|
C|----0000000---------55-00-000-00-88-77----0000000-------------00-000-00--------|
G|-55-0000000-5p7-8-7----00-000-00-------55-0000000-5p7--8-7-55-00-000-00-88-10\-|
C|----0000000----0-0-0---00-000-00---0--0---0000000----0--0-0---00-000-00---0----|



D|------------------------------------------------------------------------|
A|------------------------------------------------------------------------|
F|------------------------------------------------------------------------|
C|---00-000-00-----------5-555-555-555-55-----8-7-777-----777-------------|
G|-5-00-000-00-8p7-5-7---5-555-555-555-55-8p7-----777-8-7-777--10-8-7-7h8-|
C|---00-000-00----0-0-55-5-555-555-555-55----5-5--777--7--777----7-7-7----|



D|-------------------------------------|
A|-------------------------------------|
F|-------------------------------------|
C|-101010----------101010-8p5-5--------|
G|-101010-12--10---101010----8-8p5-8p5-|
C|-101010---10--10-101010--------------|


Verse Main Riff Harmony
D|-----------------------------------------------------------------------------------------------|
A|-----------------------------------------------------------------------------------------------|
F|-----------------------------------------------------------------------------------------------|
C|----0000000--------------88-00-000-00-1212-1010-----0000000--------------88-00-000-00-1212-14\-|
G|-88-0000000---8p10-12-10----00-000-00------------88-0000000---8p10-12-10----00-000-00----------|
C|----0000000-------0--0--0---00-000-00-----0-----0---0000000-------0--0--0---00-000-00-----0----|



D|-------------------------------------------------------------------------------------------------|
A|-------------------------------------------------------------------------------------------------|
F|-------------------------------------------------------------------------------------------------|
C|----00-000-00--------------8-888-888-888-88-------12-10-101010----------101010-------------------|
G|-8--00-000-00-12p10-8-10---8-888-888-888-88-12p10-------101010-12--10---101010-13--12--10--10h12-|
C|----00-000-00------0-0--88-8-888-888-888-88------8--8---101010---10--10-101010---10--10--10------|



D|-------------------------------|
A|-------------------------------|
F|-------------------------------|
C|-777------777-12p8--8----------|
G|-777-8-7--777-----12-12p8-12p8-|
C|-777--7-7-777------------------|



Pre-Chorus
D|-----------------------------------------------------------------------|
A|-----------------------------------------------------------------------|
F|-33-3-33-3-33-3--55-5------------------22-2--33-3-33-3-33-3--55-5-55-5-|
C|-33-3-33-3-33-3--55-5--55-5-55-5-55-5--22-2--33-3-33-3-33-3--55-5-55-5-|
G|-11-1-11-1-11-1--33-3--55-5-55-5-55-5--00-0--11-1-11-1-11-1--33-3-33-3-|
C|-----------------------55-5-55-5-55-5----------------------------------|


Pre-Chorus Octaves
D|--------------------------------------------------------------------------------|
A|--------------------------------------------------------------------------------|
F|-77-7-77-7-77-7-99-9-1010-10-1010-10-1010-10-55-5-77-7-77-7-77-7-77-7-99-9-99-9-|
C|-xx-x-xx-x-xx-x-xx-x--x-x--x--x-x--x--x-x--x-xx-x-xx-x-xx-x-xx-x-xx-x-xx-x-xx-x-|
G|-55-5-55-5-55-5-77-7--8-8--8--8-8--8--8-8--8-33-3-55-5-55-5-55-5-55-5-77-7-77-7-|
C|--------------------------------------------------------------------------------|

Pre-Chorus Octaves Harmony
D|---------------------------------------------------------------------------------------------|
A|---------------------------------------------------------------------------------------------|
F|-1010-10-1010-10-1010-10-1212-12-77-7-77-7-77-7-77-7-1010-10-1010-10-1010-10-1212-12-1212-12-|
C|--x-x--x--x-x--x--x-x--x--x-x--x-xx-x-xx-x-xx-x-xx-x--x-x--x--x-x--x--x-x--x--x-x--x--x-x--x-|
G|--8-8--8--8-8--8--8-8--8-1010-10-55-5-55-5-55-5-77-7--8-8--8--8-8--8--8-8--8-1010-10-1010-10-|
C|---------------------------------------------------------------------------------------------|



1:08 Guitar  
D|--------------|
A|--------------|
F|--------------|
C|-8p5-5--------|
G|----8-8p5-8p5-|
C|--------------|

1:08 Guitar Harmony  
D|------------------|
A|------------------|
F|------------------|
C|-12p8--8----------|
G|-----12-12p8-12p8-|
C|------------------|



Pre-Chorus Part 2
D|----------------------------------------------------------------------------|
A|----------------------------------------------------------------------------|
F|-33333-33333-3-3-55555----------------------222222-33333-33333-3-3-33333-2~-|
C|-33333-33333-3-3-55555-55555-55555-55555-55-222222-33333-33333-3-3-33333-2~-|
G|-11111-11111-1-1-33333-55555-55555-55555-55-000000-11111-11111-1-1-11111-0~-|
C|-----------------------55555-55555-55555-55---------------------------------|

Pre-Chorus Part 2 Octaves
D|------------------------------------------|
A|------------------------------------------|
F|-77777777-8888-10101010-5555-777777777-5~-|
C|-xxxxxxxx-xxxx-xxxxxxxx-xxxx-xxxxxxxxx-x--|
G|-55555555-7777-88888888-3333-555555555-3~-|
C|------------------------------------------|


Pre-Chorus Part 2 Octaves Harmony
D|-------------------------------------------|
A|-------------------------------------------|
F|-10101010-121212-77777777-9999-10101010-9~-|
C|-xxxxxxxx-xxxxxx-xxxxxxxx-xxxx-xxxxxxxx-x--|
G|-88888888-101010-55555555-7777-88888888-7~-|
C|-------------------------------------------|



Chorus 
D|---------------------------------|
A|---------------------------------|
F|---------3333333---------5555555-|
C|-5555555-3333333-3333333-5555555-|
G|-5555555-1111111-3333333-3333333-|
C|-5555555---------3333333---------|


D|---------------------------------|
A|---------------------------------|
F|---------3333333-----------------|
C|-5555555-3333333-3333333-2222222-|
G|-5555555-1111111-3333333-2222222-|
C|-5555555---------3333333-2222222-|




Chorus Octaves
D|------------------------------------------------------------------------------------------|
A|------------------------------------------------------------------------------------------|
F|-1010101010-141414-121212-14-12121212-101010101010-55-101010-999-777-55-99999-10101010-12-|
C|--x-x-x-x-x--x-x-x--x-x-x--x--x-x-x-x--x-x-x-x-x-x-xx--x-x-x-xxx-xxx-xx-xxxxx--x-x-x-x--x-|
G|--8-8-8-8-8-121212-101010-12-10101010--8-8-8-8-8-8-33--8-8-8-777-555-33-77777--8-8-8-8-10-|
C|------------------------------------------------------------------------------------------|


D|---------------------------------------------------------------------------------------|
A|---------------------------------------------------------------------------------------|
F|-1010101010-141414-121212-14-12121212-101010101010-55-101010-999-777-55-99999-77-55-7~-|
C|--x-x-x-x-x--x-x-x--x-x-x--x--x-x-x-x--x-x-x-x-x-x-xx--x-x-x-xxx-xxx-xx-xxxxx-xx-xx-x--|
G|--8-8-8-8-8-121212-101010-12-10101010--8-8-8-8-8-8-33--8-8-8-777-555-33-77777-55-33-5~-|
C|---------------------------------------------------------------------------------------|



Chorus Octaves Harmony
D|----------------------------------------------------------------------------------------------|
A|----------------------------------------------------------------------------------------------|
F|-141414-101010-999-17-151515151515-141414-101010-141414-121212-101010-121212121212-1414141414-|
C|--x-x-x--x-x-x-xxx--x--x-x-x-x-x-x--x-x-x--x-x-x--x-x-x--x-x-x--x-x-x--x-x-x-x-x-x--x-x-x-x-x-|
G|-121212--8-8-8-777-15-131313131313-121212--8-8-8-121212-101010--8-8-8-101010101010-1212121212-|
C|----------------------------------------------------------------------------------------------|


D|------------------------------------------------------------------------------------------------|
A|------------------------------------------------------------------------------------------------|
F|-141414-101010-999-17-151515151515-141414-101010-141414-121212-101010-999-12121212-1010--99-10~-|
C|--x-x-x--x-x-x-xxx--x--x-x-x-x-x-x--x-x-x--x-x-x--x-x-x--x-x-x--x-x-x-xxx--x-x-x-x--x-x--xx--x--|
G|-121212--8-8-8-777-15-131313131313-121212--8-8-8-121212-101010--8-8-8-777-10101010--8-8--77--8~-|
C|------------------------------------------------------------------------------------------------|



Verse
Play Low Harmony of the Verse. High Harmony comes in after Divebomb.


1:51 Natural Harmonic Divebomb Whammy
D|--------|
A|--------|
F|-[(4)]--|
C|----\---|
G|-----\--|
C|------\-|



Pre-Chorus



Pre-Chorus Part 2



Chorus



Pre-Solo
D|---------------|
A|---------------|
F|-7-7-777777-7v-|
C|---------------|
G|---------------|
C|---------------|

Pre-Solo Harmony
D|--------------------|
A|--------------------|
F|-10-10-10101010-10v-|
C|--------------------|
G|--------------------|
C|--------------------|



Solo (High + Low Harmony for SELECT Parts Included)
D|----------------------------|
A|-10b-10b--------------------|
F|-12--12--12-10---------9-10-|
C|---------------12-10p12-----|
G|----------------------------|
C|----------------------------|



High Harmony
D|-------------------------------------|
A|-------------------------------------|
F|-------------------------------------|
C|-12p10-12p10--8-8h10p8-7-8-7---------|
G|----------------------------10-8-7-7-|
C|-------------------------------------|

Low Harmony
D|-----------------------------|
A|-----------------------------|
F|-----------------------------|
C|-8p7-8p7-5-5h7p5--5----------|
G|-----------------8-8p7p8-3-3-|
C|-----------------------------|



High Harmony
D|---------------------------------------------------13p15p17-18b\17p13----------|
A|-------------------------------------------13p15p17-------------------15--15---|
F|----------------------------------12p14p16------------------------------14-14\-|
C|---------12---------------12p14p15---------------------------------------------|
G|-12p13p15--15p13--12p13p15-----------------------------------------------------|
C|-------------------------------------------------------------------------------|

Low Harmony
D|---------------------------------------------10p12p13-|
A|-------------------------------------10p12p13---------|
F|------------------------------9p10p12-----------------|
C|--------8--------------8p10p12------------------------|
G|-8p10p12--12p10-8p10p12-------------------------------|
C|------------------------------------------------------|



D|-----13-t22p17-t22p17--13------|
A|---15--------------------15----|
F|-14------------------------12\-|
C|-------------------------------|
G|-------------------------------|
C|-------------------------------|



D|----------12-13-12------|
A|--------15--------15-13-|
F|------14----------------|
C|----12------------------|
G|--15--------------------|
C|------------------------|



High Harmony
D|-20b-18-17h18p17--17--------------------------------------------|
A|----------------20--18p20-17p18-17h18p17------17----------------|
F|----------------------------------------19-17-19b-19p17---------|
C|-------------------------------------------------------19-17-19-|
G|----------------------------------------------------------------|
C|----------------------------------------------------------------|

Low Harmony
D|-17b-15-13h15p13--13--------------------------|
A|----------------17--15p17-13p15-13h15p13------|
F|----------------------------------------15p14-|
C|----------------------------------------------|
G|----------------------------------------------|
C|----------------------------------------------|



High Harmony
D|---15p17p15------------------------------------------------------------------|
A|-18--------18--17p15-----17p15-----------------------------------------------|
F|--------------------17--------17p15p14----15p14------------------------------|
C|--------------------------------------17-------17p15p14----15p14-------------|
G|--------------------------------------------------------17------17p15p13p12--|
C|-----------------------------------------------------------------------------|

Low Harmony
D|---12p13p12--------------------------------------------------------------|
A|-15--------15p13p11---13p11----------------------------------------------|
F|-------------------14------14p12-----12----------------------------------|
C|--------------------------------15p14--15p14p12-----12-------------------|
G|-----------------------------------------------15p13---15p13--11-10-8----|
C|-------------------------------------------------------------------------|



High Harmony
D|--------------------|
A|--------------------|
F|--------------------|
C|----------------10~-|
G|-13~12~10~8~7~8~----|
C|--------------------|

Low Harmony
D|-----------------|
A|-----------------|
F|-----------------|
C|-----------------|
G|-10~8~7~3~7~8~3~-|
C|-----------------|



High Harmony
D|-17p13--13---------------------------------------------|
A|------17--17p13-17p13--13------------------------------|
F|---------------------15--15p14p12-------12*---12-15-14-|
C|---------------------------------15---------15---------|
G|-------------------------------------------------------|
C|-------------------------------------------------------|

Low Harmony
D|-13p10--10-------------------------------------------|
A|------13--13p10-13p10--10----------------------------|
F|---------------------12--12p10p9--10*--10-12-12v-12v-|
C|--------------------------------12-------------------|
G|-----------------------------------------------------|
C|-----------------------------------------------------|



D|-10--10-15p10-13p10--101010---10---10------------------------------------------------------|
A|-13b-----------------------13---10---10h13p10--10---9----------------------------------10\-|
F|---------------------------------------------12---12---10-12-12b12-10------------------10\-|
C|-----------------------------------------------------------------------12-10-12v-10p12-10\-|
G|-------------------------------------------------------------------------------------------|
C|-------------------------------------------------------------------------------------------|



High Harmony
D|---------------------------------------------------------10--10---|
A|---10-------------------10\-----10-----------------------14b-14b~-|
F|-12--12-10---12b12-10---10\---12--12-10---12b12-10----------------|
C|----------12---------12-10\-------------12--------12--------------|
G|------------------------------------------------------------------|
C|------------------------------------------------------------------|

Low Harmony
D|----------------------------------------------------|
A|-------------------------5~-------------------------|
F|-9-10-9-10-7-9-10-9-10-7-5~-9-10-9-10-7-9-10-9-10-7-|
C|-------------------------8~-------------------------|
G|----------------------------------------------------|
C|----------------------------------------------------|



Pre-Verse



4:03 
D|--------|
A|--------|
F|--------|
C|-3~2~0~-|
G|-3~2~0~-|
C|-3~2~0~-|

4:03 Octaves
D|-------------------|
A|-------------------|
F|-10-9-7-5-9-7-5-7~-|
C|--x-x-x-x-x-x-x-x--|
G|--8-7-5-3-7-5-3-5~-|
C--------------------|

4:03 Octaves Harmony
D|------------------------|
A|------------------------|
F|-14-12-10-9-12-10-9-10~-|
C|--x--x--x-x--x--x-x--x--|
G|-12-10--8-7-10--8-7--8~-|
C|------------------------|



Tremelo
D|------------------------------------------------------------------------------|
A|------------------------------------------------------------------------------|
F|-7-7-10p7-9p77-10p77-9p7-9999-10101010-7777-10p7-9p77-10p77-9p7-9999-10101010-|
C|------------------------------------------------------------------------------|
G|------------------------------------------------------------------------------|
C|------------------------------------------------------------------------------|

D|----------------------------------------------------------|
A|----------------------------------------------------------|
F|-----10p-9p--10p--9p-9999-10101010----10p-9p--10p--9p-9-6-|
C|-8888---8--88---88--8-------------8888---8--88---88--8----|
G|----------------------------------------------------------|
C|----------------------------------------------------------|


Tremelo Harmony
D|--------------------------------------------------------------------------------------------------|
A|--------------------------------------------------------------------------------------------------|
F|-10-10-14p10-12p1010-14p1010-12p10-121212-141414-101010-14p10-12p1010-14p1010-12p10-121212-141414-|
C|--------------------------------------------------------------------------------------------------|
G|--------------------------------------------------------------------------------------------------|
C|--------------------------------------------------------------------------------------------------|


D|------------------------------------------------------------------------------|
A|------------------------------------------------------------------------------|
F|-------14p--12p----14p----12--121212-141414------14p--12p----14p----12---12---|
C|-121212---12---1212---1212--12-------------121212---12---1212---1212--12---14-|
G|------------------------------------------------------------------------------|
C|------------------------------------------------------------------------------|



Outro (x2)
D|------------------------------|
A|------------------------------|
F|------------------------------|
C|-0~00000~00000~00000-0-0-0----|
G|-0~00000~00000~00000-0-0-0-1~-|
C|-0~00000~00000~00000-0-0-0-0~-|

Outro Arpeggio (x2)
D|----8--8-----|
A|--6--6--6----|
F|-9-9--9--9---|
C|----------7~-|
G|-------------|
C|-------------|

Outro Arpeggio Harmony (x2)
D|-------8-----8---------|
A|---10---10----10-------|
F|-12--12---12----12-----|
C|-------------------10~-|
G|-----------------------|
C|-----------------------|



End
D|---------------|
A|---------------|
F|---------------|
C|-0-00000-00000-|
G|-0-00000-00000-|
C|-0-00000-00000-|

Добавлено: 28.08.2013
Другие материалы по этой песне:
  • Аккорды и текст

Страница создана 28.08.2013
http://primanota.ru/with-one-last-breath/down-the-darkest-road-chords.htm
Привет, Гость.
Предлагаем пройти революционный курс по гитаре.
Подарок от PrimaNota.Ru, забирай!