PrimaNota.ru - самый крупный в мире бесплатный архив песенных текстов, аккордов, табулатур и нот


With Honor - Like Trumpets - таба, видео

Регистрация Запомнить меня
Войти через:  Facebook Google Twitter Vk Yandex Mail.ru

With Honor - Like Trumpets - таба, видео

Печатать
Просмотров: 62
Уроки эстрадного вокала в Санкт-Петербурге
Artist: With Honor
Song:   Like Trumpets
Album:  This is our Revenge
Year:   2005

For year I have been looking for TABS for this song and have found nothing. 10 years 
later I finally sat down with my guitar and figured it out. This song is pretty fast so it was tough trying 
to TAB out a rhythm for it. This was all figured out by ear but I am 95% sure all notes/chords represented are 
correct. Given I played along with the song about 200 times before tabbing it out. If you have any tweaks or 
suggestions I am open to them. Other than that enjoy!

Guitar Left Pan

Verse Part 1: 2x

    PM...              ..  ..  ..  ..   ...
Eb :----------------|----------------|----------------|--------0---------|
Bb :----------------|----------------|----------------|------------0-----|
Gb :9-----7---9-7---|5---4-----------|----------------|7---------------0-|
Db :9-----7---9-7---|5---4---7---5---|2-----2---2-2-2-|7-7-7-7-----------|
Ab :7-222-5---7-5---|3-222-227-225-22|2-222-2---2-2-2-|5-5-5-5-----------|
Eb :--000-----------|--00--005-003-00|0-000-0---0-0-0-|------------------|


Verse Part 2: 2x


Eb :7-7---7---7---7-|5-5---5---5---5-|3-3---3---3---3-|2-2---2---2---2-|
Bb :5-5---5---5---5-|5-5---5---5---5-|5-5---5---5---5-|5-5---5---5---5-|
Gb :----------------|----------------|----------------|----------------|
Db :----------------|----------------|----------------|----------------|
Ab :----------------|----------------|----------------|----------------|
Eb :----------------|----------------|----------------|----------------|


Chorus: 2x


Eb :----------------|-----------------|----------------|-----------------|
Bb :----------------|-----------------|----------------|-----------------|
Gb :7-9---9-7-9---9-|7-9---9-12-7---7-|7-9---9-7-9---9-|7-9---9-12---7---|
Db :7-9---9-7-9---9-|7-9---9-12-7---7-|7-9---9-7-9---9-|7-9---9-12---7---|
Ab :5-7---7-5-7---7-|5-7---7-10-5---5-|5-7---7-5-7---7-|5-7---7-10---5---|
Eb :----------------|-----------------|----------------|-----------------|

Eb :-------------------|-------------------|--------------------|-------------------|
Bb :-------------------|-------------------|--------------------|-------------------|
Gb :-------------------|-------------------|--------------------|-------------------|
Db :9-10--10-10--7---7-|9-10---10-10-7---7-|9-10---10-9-10---10-|9-10---10-10---7---|
Ab :9-10--10--9-10--10-|9-10---10-10-7---7-|9-10---10-9-10---10-|9-10---10-10---7---|
Eb :7--8---8--7--8---8-|7--8----8--8-5---5-|7--8----8-7--8----8-|7--8----8--8---5---|

Verse Part 1: 2x


Verse Part 2: 2x


Chorus: 2x


Bridge Part 1: 2x

   PM . . . .         . . . . . . . .
Eb :-----------------|----------------|----------------|----------------|
Bb :-----------------|----------------|----------------|----------------|
Gb :9---------12---5-|----------------|4---4---4-4-4-7-|--7---7-7-7-7-7-|
Db :9-9-9-9-9-12---5-|5-5-5-5-5-5-5-5-|4---4---4-4-4-7-|--7---7-7-7-7-7-|
Ab :7-7-7-7-7-10---3-|3-3-3-3-3-3-3-3-|2---2---2-2-2-5-|--5---5-5-5-5-5-|
Eb :-----------------|----------------|----------------|----------------|

Bridge Part 2: 2x


Eb :-----------------|----------------|----------------|----------------|
Bb :-----------------|----------------|----------------|----------------|
Gb :9-9-9-9-9-12---5-|5-5-5-5-5-5-5-5-|4---4---4-4-4-7-|--7---7-7-7-7-7-|
Db :9-9-9-9-9-12---5-|5-5-5-5-5-5-5-5-|4---4---4-4-4-7-|--7---7-7-7-7-7-|
Ab :7-7-7-7-7-10---3-|3-3-3-3-3-3-3-3-|2---2---2-2-2-5-|--5---5-5-5-5-5-|
Eb :-----------------|----------------|----------------|----------------|

Pre Chorus: 1x


Eb :7-7---7---7---7-|5-5---5---5---5-|3-3---3---3---3-|2-2---2---2---2-|
Bb :5-5---5---5---5-|5-5---5---5---5-|5-5---5---5---5-|5-5---5---5---5-|
Gb :----------------|----------------|----------------|----------------|
Db :----------------|----------------|----------------|----------------|
Ab :----------------|----------------|----------------|----------------|
Eb :----------------|----------------|----------------|----------------|

Chorus: 2x


Break Down Part 1: 2x

              PM. .                               . .
Eb :----------------|----------------|----------------|----------------|
Bb :----------------|----------------|----------------|----------------|
Gb :----------------|----------------|----------------|----------------|
Db :2---------------|5---------------|2---------------|7---------------|
Ab :2-----------2-2-|3---------------|2-----------2-2-|5---------------|
Eb :0-----------0-0-|3---------------|0-----------0-0-|5---------------|

Break Down Part 2: 2x

              PM. .                               . .
Eb :----x-----------|----------------|----x-----------|----------------|
Bb :----x-----------|----------------|----x-----------|----------------|
Gb :9-9-x-9-9-9-----|----------------|9-9-x-9-9-9-----|----------------|
Db :----x-----------|5---------------|----x-----------|7---------------|
Ab :7-7-x-7-7-7-2-2-|3---------------|7-7-x-7-7-7-2-2-|5---------------|
Eb :----x-------0-0-|3---------------|----x-------0-0-|5---------------|

Ending: x1


Eb :----------------|----------------|----------------|----------------|
Bb :----------------|----------------|----------------|----------------|
Gb :----------------|----------------|----------------|----------------|
Db :2---------------|5---------------|2---------------|7---------------|
Ab :2---------------|3---------------|2---------------|5---------------|
Eb :0---------------|3---------------|0---------------|5---------------|

Eb :----------------|----------------|----------------|----------------|
Bb :----------------|----------------|----------------|----------------|
Gb :----------------|----------------|----------------|----------------|
Db :2---------------|5---------------|2---------------|7-------7-------|
Ab :2---------------|3---------------|2---------------|5-------5-------|
Eb :0---------------|3---------------|0---------------|5-------5-------|


Eb :----------------|----------------|----------------|----------------|
Bb :----------------|----------------|----------------|----------------|
Gb :----------------|----------------|----------------|----------------|
Db :2---------------|----------------|----------------|----------------|
Ab :2---------------|----------------|----------------|----------------|
Eb :0---------------|----------------|----------------|----------------|



Guitar Right Pan

Verse Part 1.1: 1x

                     PM..  ..  ..  ..   ...
Eb :----------------|----------------|----------------|--------0---------|
Bb :----------------|----------------|----------------|------------0-----|
Gb :----------------|5---4-----------|----------------|7---------------0-|
Db :2---------------|5---4---7---5---|2-----2---2-2-2-|7-7-7-7-----------|
Ab :2---------------|3-222-227-225-22|2-222-2---2-2-2-|5-5-5-5-----------|
Eb :0---------------|--00--005-003-00|0-000-0---0-0-0-|------------------|

Verse Part 1.2: 1x

    PM...              ..  ..  ..  ..   ...
Eb :----------------|----------------|----------------|--------0---------|
Bb :----------------|----------------|----------------|------------0-----|
Gb :9-----7---9-7---|5---4-----------|----------------|7---------------0-|
Db :9-----7---9-7---|5---4---7---5---|2-----2---2-2-2-|7-7-7-7-----------|
Ab :7-222-5---7-5---|3-222-227-225-22|2-222-2---2-2-2-|5-5-5-5-----------|
Eb :--000-----------|--00--005-003-00|0-000-0---0-0-0-|------------------|

Verse Part 2: 2x


Eb :----------------|----------------|----------------|----------------|
Bb :----------------|----------------|----------------|----------------|
Gb :9-9---9---9---9-|5-5---5-2-2---2-|----------------|7-7---7---7---7-|
Db :9-9---9---9---9-|5-5---5-2-2---2-|2-2---2---2---2-|7-7---7---7---7-|
Ab :7-7---7---7---7-|3-3---3-0-0---0-|2-2---2---2---2-|5-5---5---5---5-|
Eb :----------------|----------------|0-0---0---0---0-|----------------|

Chorus: 4x


Eb :----------------------|----------------------|----------------------|-------------------|
Bb :----------------------|----------------------|----------------------|-------------------|
Gb :11-12---12-11-12---12-|11-12---12-16-14---14-|11-12---12-11-12---12-|11-12---12-9---7---|
Db :----------------------|----------------------|----------------------|-------------------|
Ab :-9-10---10--9-10---10-|-9-10---10-14-12---12-|-9-10---10--9-10---10-|-9-10---10-7---5---|
Eb :----------------------|----------------------|----------------------|-------------------|

Verse 1.2: 2x


Chorus: 4x


Bridge Part 1: 2x

      Mute
Eb :----------------|----------------|----------------|----------------|
Bb :----------------|----------------|----------------|----------------|
Gb :9-*-------------|----------------|4---4---4-4-4-7-|--7---7-7-7-7-7-|
Db :9-*-------------|----------------|4---4---4-4-4-7-|--7---7-7-7-7-7-|
Ab :7-*-------------|----------------|2---2---2-2-2-5-|--5---5-5-5-5-5-|
Eb :----------------|----------------|----------------|----------------|

Bridge Part 2: 1x


Eb :-------------------|------------------------|-----------------------|----------------|
Bb :-------------------|------------------------|-----------------------|----------------|
Gb :9-9-9-9-9-11-11-12-|12-12-12-12-12-12-12-12-|11-11-11-11-11-11-11-7-|7-7-7-7-7-7-7-7-|
Db :-------------------|------------------------|-----------------------|----------------|
Ab :7-7-7-7-7--9--9-10-|10-10-10-10-10-10-10-10-|-9--9--9--9--9--9--9-5-|5-5-5-5-5-5-5-5-|
Eb :-------------------|------------------------|-----------------------|----------------|

Eb :-------------------|------------------------|------------------------|------------------------|
Bb :-------------------|------------------------|------------------------|------------------------|
Gb :9-9-9-9-9-11-11-12-|12-12-12-12-12-12-12-12-|16-16-16-16-16-16-16-19-|19-19-19-19-19-19-19-19-|
Db :-------------------|------------------------|------------------------|------------------------|
Ab :7-7-7-7-7--9--9-10-|10-10-10-10-10-10-10-10-|14-14-14-14-14-14-14-17-|17-17-17-17-17-17-17-17-|
Eb :-------------------|------------------------|------------------------|------------------------|

Pre Chorus: 1x

      Mute
Eb :----------------|----------------|----------------|----------------|
Bb :----------------|----------------|----------------|----------------|
Gb :9-*-------------|5---------------|----------------|7---------------|
Db :9-*-------------|5---------------|2---------------|7---------------|
Ab :7-*-------------|3---------------|2---------------|5---------------|
Eb :----------------|----------------|0---------------|----------------|

Chorus: 4x

Break Down: 4x

              PM . .                              . .
Eb :----------------|----------------|----------------|----------------|
Bb :----------------|----------------|----------------|----------------|
Gb :----------------|----------------|----------------|----------------|
Db :2---------------|5---------------|2---------------|7---------------|
Ab :2-----------2-2-|3---------------|2-----------2-2-|5---------------|
Eb :0-----------0-0-|3---------------|0-----------0-0-|5---------------|


Ending: 1x


Eb :----------------|----------------|----------------|----------------|
Bb :----------------|----------------|----------------|----------------|
Gb :----------------|----------------|----------------|----------------|
Db :2---------------|5---------------|2---------------|7---------------|
Ab :2---------------|3---------------|2---------------|5---------------|
Eb :0---------------|3---------------|0---------------|5---------------|

Eb :----------------|----------------|----------------|----------------|
Bb :----------------|----------------|----------------|----------------|
Gb :----------------|----------------|----------------|----------------|
Db :2---------------|5---------------|2---------------|7-------7-------|
Ab :2---------------|3---------------|2---------------|5-------5-------|
Eb :0---------------|3---------------|0---------------|5-------5-------|

Eb :----------------|----------------|----------------|----------------|
Bb :----------------|----------------|----------------|----------------|
Gb :----------------|----------------|----------------|----------------|
Db :2---------------|----------------|----------------|----------------|
Ab :2---------------|----------------|----------------|----------------|
Eb :0---------------|----------------|----------------|----------------|
Добавлено: 14.11.2015
Другие материалы по этой песне:
  • Аккорды и текст

Страница создана 14.11.2015
http://primanota.ru/with-honor/like-trumpets-chords.htm
Привет, Гость.
Предлагаем пройти революционный курс по гитаре.
Подарок от PrimaNota.Ru, забирай!