PrimaNota.ru - самый крупный в мире бесплатный архив песенных текстов, аккордов, табулатур и нот


With Confidence - Well Be Okay - таба, видео

Регистрация Запомнить меня
Войти через:  Facebook Google Twitter Vk Yandex Mail.ru

With Confidence - Well Be Okay - таба, видео

Печатать
Просмотров: 73
Уроки эстрадного вокала в Санкт-Петербурге
With Confidence
   We'll Be Okay

By: AJ Booker

Guitar 1: Luke
Guitar 2: Ini

VERSE:
Guitar 1 and 2:
e|-----------------------------|
B|-----------------------------|
G|--7-7---4-4---2-2------------|
D|--7-7---4-4---2-2---5-5-555--|
A|--5-5---2-2---0-0---5-5-555--|
E|--------------------3-3-333--| x3

e|---------------------|
B|---------------------|
G|--7-7---4-4---2------|
D|--7-7---4-4---2-hold-|
A|--5-5---2-2---0------|
E|---------------------|

e|-----------------------------|
B|-----------------------------|
G|--7-7---4-4---2-2------------|
D|--7-7---4-4---2-2---5-5-555--|
A|--5-5---2-2---0-0---5-5-555--|
E|--------------------3-3-333--| x4


Over the second and last time repeated, Guitar 2 plays:
e|---------------------------------------------|
B|-----15-14-10--------------15-14-10----------|
G|---14----------16-14-----14------------------|
D|-12----------12--------12----------12-14-12--|
A|---------------------------------------------|
E|---------------------------------------------|


PRECHORUS:
Guitar 1 only
e|------------|
B|------------|
G|-6/7-7-6-7--|
D|-6/7-7-6-7--|
A|-4/5-5-4-5--|
E|------------| x3

CHORUS:
Guitar 1 and 2:
e|--------------------------------------|
B|--------------------------------------|
G|-77777777-44444444----------22222222--|
D|-77777777-44444444-55555555-22222222--|
A|-55555555-22222222-55555555-00000000--|
E|-------------------33333333-----------| x2

2ND VERSE (intro):
Guitar 1:
e|--------------------------------------------------|
B|--------------------------------------------------|
G|--7-7---4-4---2-2--------------7-7---4-4---2------|
D|--7-7---4-4---2-2---5-5-555----7-7---4-4---2-hold-|
A|--5-5---2-2---0-0---5-5-555----5-5---2-2---0------|
E|--------------------3-3-333-----------------------|

Guitar 2:
e|---------------------------------------------|
B|-----15-14-10--------------15-14-10----------|
G|---14----------16-14-----14------------------|
D|-12----------12--------12----------12-14-12--|
A|---------------------------------------------|
E|---------------------------------------------|

I'm not too sure what the play during the actual verse, but I just play the
chords from the intro but palm muted and 4 times on each like:
e|----------------------|
B|----------------------|
G|-7777-4444-2222-------|
D|-7777-4444-2222-5555--|
A|-5555-2222-0000-5555--|
E|----------------3333--| x2
   **** **** **** ****

PRECHORUS:
Guitar 1 only
e|-------****---------****---------****-----------------------|
B|-------****---------****---------****-----------------------|
G|-6/7-7-****---6/7-7-****---6/7-7-****--7--------------------|
D|-6/7-7-****---6/7-7-****---6/7-7-****--7--------------------|
A|-4/5-5-****---4/5-5-****---4/5-5-****--5-hold---------------|
E|-------****---------****---------****----------*pickslide*--|

CHORUS:
Guitar 1 and 2:
e|--------------------------------------|
B|--------------------------------------|
G|-77777777-44444444----------22222222--|
D|-77777777-44444444-55555555-22222222--|
A|-55555555-22222222-55555555-00000000--|
E|-------------------33333333-----------| x2

BRIDGE:
Guitar 1 and 2:
e|------------------------------------------------|
B|------------------------------------------------|
G|-7-4-7-----7-4-7-6---7-4-7-----7-4-7-6--7777777-|
D|-7-4-7-----7-4-7-6---7-4-7-----7-4-7-6--7777777-|
A|-5-2-5-----5-2-5-4---5-2-5-----5-2-5-4--5555555-|
E|------------------------------------------------|
                                          *******


CHORUS:
Guitar 1 and 2:
e|----------------------------------------------------------------------------|
B|----------------------------------------------------------------------------|
G|-7-7-4-4--44444444----------22222222--77777777-44444444----------22222222---|
D|-7-7-4-4--44444444-55555555-22222222--77777777-44444444-55555555-22222222---|
A|-5-5-2-2--22222222-55555555-00000000--55555555-22222222-55555555-00000000---|
E|-------------------33333333------------------------------33333333-----------|

OUTTRO:
Guitar 1:
e|--------------------------------------------------|
B|--------------------------------------------------|
G|--7-7---4-4---2-2--------------7-7---4-4---2------|
D|--7-7---4-4---2-2---5-5-555----7-7---4-4---2-hold-|
A|--5-5---2-2---0-0---5-5-555----5-5---2-2---0------|
E|--------------------3-3-333-----------------------|

Guitar 2:
e|---------------------------------------------|
B|-----15-14-10--------------15-14-10----------|
G|---14----------16-14-----14------------------|
D|-12----------12--------12----------12-14-12--|
A|---------------------------------------------|
E|---------------------------------------------|

Добавлено: 30.03.2016
Другие материалы по этой песне:
  • Аккорды и текст

Страница создана 30.03.2016
http://primanota.ru/with-confidence/well-be-okay-chords.htm
Привет, Гость.
Предлагаем пройти революционный курс по гитаре.
Подарок от PrimaNota.Ru, забирай!