PrimaNota.ru - самый крупный в мире бесплатный архив песенных текстов, аккордов, табулатур и нот


Witchrider - Black - таба, видео

Регистрация Запомнить меня
Войти через:  Facebook Google Twitter Vk Yandex Mail.ru

Witchrider - Black - таба, видео

Печатать
Просмотров: 85
Guitar 1 Intro

E|---------------------
B|------9--------------
G|--------------9------
D|---------------------  x12
A|---------------------
E|-6-6----6-6-6--------

E|----------------------------------------------------
B|----------------------------------------------------
G|----------------------------------------------------
D|---------------------------------------------------- x2
A|-6s8-8-8-8-8-8-8-11-11-11-6s8-8-8-8-8-8-8-6-6-6-----
E|----------------------------------------------------

Guitar 2 Intro/Verse

E|---------------------------------------------------------
B|---------------------------------------------------------
G|---------------------------------------------8-8-8-8-----
D|-8-8-8-8-8-8-8-8-11-11-11--4-4-4-4-4-4-4-4-4-8-8-8-8-----
A|-8-8-8-8-8-8-8-8-11-11-11--4-4-4-4-4-4-4-4-4-6-6-6-6-----
E|-6-6-6-6-6-6-6-6-9--9--9---2-2-2-2-2-2-2-2-2-------------

Guitar 1 Verse

E|---------------------
B|------9--------------
G|--------------9------
D|---------------------  x8
A|---------------------
E|-6-6----6-6-6--------

E|--------16---------------------
B|---------------------17--------
G|-------------------------------
D|-------------------------------  x2
A|-13-13----13-13-13-------------
E|-------------------------------

E|---------------------
B|------9--------------
G|--------------9------
D|---------------------  x2
A|---------------------
E|-6-6----6-6-6--------

E|--------16---------------------
B|---------------------17--------
G|-------------------------------
D|-------------------------------  x2
A|-13-13----13-13-13-------------
E|-------------------------------

E|---------------------
B|------9--------------
G|--------------9------
D|---------------------  x2
A|---------------------
E|-6-6----6-6-6--------

E|----------------------------------------------------
B|----------------------------------------------------
G|----------------------------------------------------
D|---------------------------------------------------- x2
A|-6s8-8-8-8-8-8-8-11-11-11-6s8-8-8-8-8-8-8-6-6-6-----
E|----------------------------------------------------

Then verse 2 which both guitars play the same

Chorus

Guitar 1

E|----------------------------------------------------
B|----------------------------------------------------
G|----------------------------------------------------
D|-8-8-8-10-10-10-11-11-11-13-13-13-11-11-10-10------- 
A|-8-8-8-10-10-10-11-11-11-13-13-13-11-11-10-10-------
E|-6-6-6-8--8--8--9--9--9--11-11-11-9--9--8--8--------

E|---------------------
B|---------------------
G|-8-6--6-6-----------
D|-----8----8-----8---
A|------------6s8-----
E|---------------------

E|----------------------------------------------------
B|----------------------------------------------------
G|----------------------------------------------------
D|-8-8-8-10-10-10-11-11-11-13-13-13-11-11-10-10------- 
A|-8-8-8-10-10-10-11-11-11-13-13-13-11-11-10-10-------
E|-6-6-6-8--8--8--9--9--9--11-11-11-9--9--8--8--------

E|--------------------------
B|--------------------------
G|-8b-8b-8b-6-----------8---
D|------------8-6-6-6s8-----
A|--------------------------
E|--------------------------

Guitar 2

E|--------------------------------------------------------------------------------
B|--------------------------------------------------------------------------------
G|--------------------------------------------------------------------------------
D|-8-8-8-10-10-10-11-11-11-13-13-13-11-11-10-10-4-4-4-4-4-4-4-4-4-4-4-4-4-4------- 
A|-8-8-8-10-10-10-11-11-11-13-13-13-11-11-10-10-4-4-4-4-4-4-4-4-4-4-4-4-4-4-------
E|-6-6-6-8--8--8--9--9--9--11-11-11-9--9--8--8--2-2-2-2-2-2-2-2-2-2-2-2-2-2-------

Both Guitars

E|--------------------------------------------------------------------------------
B|--------------------------------------------------------------------------------
G|--------------------------------------------------------------------------------
D|-8-8-8-10-10-10-11-11-11-13-13-13-11-11-10-10-4-4-4-4-4-4-4-4-4-4-4-4-4-4------- x2
A|-8-8-8-10-10-10-11-11-11-13-13-13-11-11-10-10-4-4-4-4-4-4-4-4-4-4-4-4-4-4-------
E|-6-6-6-8--8--8--9--9--9--11-11-11-9--9--8--8--2-2-2-2-2-2-2-2-2-2-2-2-2-2-------

E|-----------
B|-----------
G|-----------
D|-8-8x-8-8x-
A|-8-8x-8-8x-
E|-6-6x-6-6x-

Verse 3

Chorus

Ending

Guitar 2 plays verse

Guitar 1

E|--------------------------------9---9
B|----------------------------7h9---9--
G|---6-8-----6-8------6-8--------------
D|8~-----8~-------8~-----8~------------
A|-------------------------------------
E|-------------------------------------

E|--------------------------
B|--------------------------
G|--------------------------
D|-8-8-10-10-11-11-10-8--8-- x8
A|--------------------------
E|--------------------------

Both guitars play guitar 2 verse

Edit: Cheers to Witchrider for putting this on their facebook page! :)
Добавлено: 05.08.2015
Другие материалы по этой песне:
  • Аккорды и текст

Страница создана 05.08.2015
http://primanota.ru/witchrider/black-chords.htm
Привет, Гость.
Предлагаем пройти революционный курс по гитаре.
Подарок от PrimaNota.Ru, забирай!