PrimaNota.ru - самый крупный в мире бесплатный архив песенных текстов, аккордов, табулатур и нот


Witchgrinder - Jack The Ripper - таба, видео

Регистрация Запомнить меня
Войти через:  Facebook Google Twitter Vk Yandex Mail.ru

Witchgrinder - Jack The Ripper - таба, видео

Печатать
Просмотров: 81
SONG NAME Jack The Ripper
Band Name Witchgrinder

Tabbed by: Roqua_99
Email: imascorp911@gmail.com (Please Subjet as Tab and Name of Song)
Tuning: Drop D

Crazy good song by a crazy band! Also this isn't from the CD this is tabbed from here; 
https://www.youtube.com/watch?v=Ek376HCDAtM However the same princable applies for the song.

e|-----------------------------------------------------------------------|
B|-----------------------------------------------------------------------|
G|-----------------------------------------------------------------------|
D|1-0------------------------------1-0-----------------1-0-1-3-----------| x4 (This is also the whispered 
A|1-0------------------------------1-0-----------------1-0-1-3(Hold)-----|     versue riff I think)
D|1-0--0-0-0-0-0-0-0-0-0-0-0-0-0-0-1-0-0-0-0-0-0-0-0-0-1-0-1-3-----------|
       
e|-----------------------------------------------------------------------|
B|-----------------------------------------------------------------------|
G|-----------------------------------------------------------------------|
D|-7-----8----------------0-4-5--8-\-7----7-----8------------------------|
A|-5-----6---------0-5-6---------6-\-5----5-----6------------------2-2-2-|
E|--0-0---0-0-0-0-------0------0------------0-0---0-0-0-0--2-2-2-0------2|
   
e|-----------------------------------------------------------------------|
B|-----------------------------------------------------------------------|
G|-----------------------------------------------------------------------|
D|-7-----8----------------0-4-5--8-\-7----7-----8------------------------|
A|-5-----6---------0-5-6---------6-\-5----5-----6------------------------|
E|--0-0---0-0-0-0-------0------0------------0-0---0-0-0-0--2-2-2-2-------|
    
e|---------------------------------------------------------------|
B|---------------------------------------------------------------|
G|---------------------------------------------------------------|
D|---------------------------------------------------------------|
A|--------1-1-1-1------------------------------------------------|
E|1-1-1-1--------2-2-2-2-----------------------------------------|



| /  slide up
| \  slide down
| h  hammer-on
| p  pull-off
| ~  vibrato
| +  harmonic
| x  Mute note
Добавлено: 03.01.2016
Другие материалы по этой песне:
  • Аккорды и текст

Страница создана 03.01.2016
http://primanota.ru/witchgrinder/jack-ripper-chords.htm
Привет, Гость.
Предлагаем пройти революционный курс по гитаре.
Подарок от PrimaNota.Ru, забирай!