PrimaNota.ru - самый крупный в мире бесплатный архив песенных текстов, аккордов, табулатур и нот


Witchfinder General - Soviet Invasion - таба, видео

Регистрация Запомнить меня
Войти через:  Facebook Google Twitter Vk Yandex Mail.ru

Witchfinder General - Soviet Invasion - таба, видео

Печатать
Просмотров: 68
Song: Soviet Invasion
Band: Witchfinder General
Album: Soviet Invasion
Tabbed by: TrollFaceJesus
E-mail: trollfacejesus@gmail.com


Hey everyone, this is my tab for this song, and I think it sounds pretty awesome. All of the rhythm sections
in the song are here, but I didn't tab out the solos. Hopefully everything in here is accurate, and you guys 
find this tab to be helpful! If you have any comments, questions or revisions to point out, please feel free
to leave a message here, or to send me an email! :D



Tuning: C-Standard



Intro:
======

Riff 1a (Guitar 1)

 1 e + a 2 e + a 3 e + a 4 e + a 1 e + a 2 e + a 3 e + a 4 e + a
|--------2---0-------2----------|--------2---0-------2----------|
|----3-----------------------3--|----3--------------------------|
|-------------------------------|-------------------------------| x1
|0------------------------------|0------------------------------|
|-------------------------------|-------------------------------|
|-------------------------------|-------------------------------|


Riff 1a (Guitar 2)

 1 e + a 2 e + a 3 e + a 4 e + a 1 e + a 2 e + a 3 e + a 4 e + a
|-------------------------------|-------------------------------|
|-------------------------------|-------------------------------|
|-------------------------------|-------------------------------| x1
|0------------------------------|0---0--------------------------|
|-------------------------------|----------------------------0--|
|-------------------------------|-------------------------------|




Riff 1b (Guitar 1)

 1 e + a 2 e + a 3 e + a 4 e + a 1 e + a 2 e + a 3 e + a 4 e + a
|--------3---0-------3----------|--------3---0-------3----------|
|----2--------------------------|----2--------------------------|
|2------------------------------|2------------------------------| x1
|-------------------------------|-------------------------------|
|-------------------------------|-------------------------------|
|-------------------------------|-------------------------------|


Riff 1b (Guitar 2)

 1 e + a 2 e + a 3 e + a 4 e + a 1 e + a 2 e + a 3 e + a 4 e + a
|-------------------------------|-------------------------------|
|----------------------------2--|-------------------------------|
|2------------------------------|2------------------------------| x1
|-------------------------------|-------------------------------|
|-------------------------------|-------------------------------|
|-------------------------------|-------------------------------|




Riff 1a x 1




Riff 1c (Guitar 1)

 1 e + a 2 e + a 3 e + a 4 e + a 1 e + a 2 e + a 3 e + a 4 e + a
|----0---3---0-------3-------0--|----0---3---0-------3----------|
|1------------------------------|1------------------------------|
|-------------------------------|-------------------------------| x1
|-------------------------------|-------------------------------|
|-------------------------------|-------------------------------|
|-------------------------------|-------------------------------|


Riff 1c (Guitar 2)

 1 e + a 2 e + a 3 e + a 4 e + a 1 e + a 2 e + a 3 e + a 4 e + a
|-------------------------------|-------------------------------|
|1---1--------------------------|1---1--------------------------|
|-------------------------------|-------------------------------| x1
|-------------------------------|-------------------------------|
|-------------------------------|-------------------------------|
|-------------------------------|-------------------------------|




Riff 1d (Guitar 1)

 1 e + a 2 e + a 3 e + a 4 e + a 1 e + a 2 e + a 3 e + a 4 e + a
|------------0------------------|------------0------------------|
|--------1-----------1----------|--------1----------------------|
|----0-----------------------0--|----0--------------------------| x1
|3------------------------------|3-----------------------3---2--|
|-------------------------------|-------------------------------|
|-------------------------------|-------------------------------|


Riff 1d (Guitar 2)

 1 e + a 2 e + a 3 e + a 4 e + a 1 e + a 2 e + a 3 e + a 4 e + a
|-------------------------------|-------------------------------|
|-------------------------------|-------------------------------|
|-------------------------------|-------------------------------| x1
|3---3--------------------------|3---3-------------------3---2--|
|-------------------------------|-------------------------------|
|-------------------------------|-------------------------------|




Riff 1e (Guitar 1)

 1 e + a 2 e + a 3 e + a 4 e + a 1 e + a 2 e + a 3 e + a 4 e + a
|------------8------------------|------------8------------------|
|--------6-----------6----------|--------6----------------------|
|----7-----------------------7--|----7--------------------------| x1
|0------------------------------|0------------------------------|
|-------------------------------|------------------------3---2--|
|-------------------------------|-------------------------------|


Riff 1e (Guitar 2)

 1 e + a 2 e + a 3 e + a 4 e + a 1 e + a 2 e + a 3 e + a 4 e + a
|-------------------------------|-------------------------------|
|-------------------------------|-------------------------------|
|-------------------------------|-------------------------------| x1
|0---0--------------------------|0---0--------------------------|
|-------------------------------|------------------------3---2--|
|-------------------------------|-------------------------------|




Main Riff (0:30)
================

Riff 2a

 1 e + a 2 e + a 3 e + a 4 e + a 1 e + a 2 e + a 3 e + a 4 e + a
|-------------------------------|-------------------------------|
|-------------------------------|-------------------------------|
|-------------------------------|-------------------------------| x1
|2---------------2--------------|-------------------------------|
|0---------------0-------0---0--|0---0---0---0---3-----------3--|
|-------------------------------|----------------------3--------|
                         .   .   .   .   .   .



Riff 2b

 1 e + a 2 e + a 3 e + a 4 e + a 1 e + a 2 e + a 3 e + a 4 e + a
|-------------------------------|-------------------------------|
|-------------------------------|-------------------------------|
|-------------------------------|-------------------------------| x1
|7---------------7--------------|----------------8-----5-----4--|
|5---------------5-------5---5--|5---5---5---5---6-----3-----2--|
|-------------------------------|-------------------------------|
                         .   .   .   .   .    .



Riff 2a x 1




Riff 2c x 1

 1 e + a 2 e + a 3 e + a 4 e + a 1 e + a 2 e + a 3 e + a 4 e + a
|-------------------------------|-------------------------------|
|-------------------------------|-------------------------------|
|-------------------------------|-------------------------------| x1
|7---------------7--------------|-------------------------------|
|5---------------5-------5---5--|5tr6------------2tr3-----------|
|-------------------------------|-------------------------------|
                         .   .



Verse I (0:46)
==============

Riff 2a x 1

Riff 2b x 1

Riff 2a x 1

Riff 2c x 1

Riff 2a x 1

Riff 2b x 1




Riff 2d

 1 e + a 2 e + a 3 e + a 4 e + a 1 e + a 2 e + a 3 e + a 4 e + a
|-------------------------------|-------------------------------|
|-------------------------------|-------------------------------|
|-------------------------------|-------------------------------| x1
|2---------------2--------------|-------------------------------|
|0---------------0-------0---0--|0---0---0---0---3-----2--------|
|-------------------------------|----------------------------3--|
                         .   .   .   .   .   .



Riff 2e

 1 e + a 2 e + a 3 e + a 4 e + a 1 e + a 2 e + a 3 e + a 4 e + a
|-------------------------------|-------------------------------|
|-------------------------------|-------------------------------|
|-------------------------------|-------------------------------| x1
|-------------------------------|-------------------------------|
|3---------------3--------------|----------------3-----0-----1--|
|1---------------1-------1---1--|1---1---1---1------------------|
                         .   .   .   .   .   .



Riff 3a

 1 e + a 2 e + a 3 e + a 4 e + a 1 e + a 2 e + a 3 e + a 4 e + a
|-------------------------------|-------------------------------|
|-------------------------------|-------------------------------|
|-------------------------------|-------------------------------| x3
|-------------------------------|-------------------------------|
|2-------2----------------------|----------------3-----0-----2--|
|--------0----------------------|-------------------------------|




Riff 3b

 1 e + a 2 e + a 3 e + a 4 e + a 1 e + a 2 e + a 3 e + a 4 e + a
|-------------------------------|-------------------------------|
|-------------------------------|-------------------------------|
|-------------------------------|-------------------------------| x1
|-------------------------------|5---5-----------7---7----------|
|2-------2----------------------|3---3-----------5---5----------|
|--------0----------------------|-------------------------------|




Riff 2a x 1

Riff 2b x 1

Riff 2a x 1

Riff 2c x 1




Verse II (1:47)
===============

Riff 2a x 1

Riff 2b x 1

Riff 2a x 1

Riff 2c x 1

Riff 2a x 1

Riff 2b x 1

Riff 2d x 1

Riff 2e x 1

Riff 3a x 3

Riff 3b x 1




Bridge (2:33)
=============

Riff 4

|---|
|---|
|-2-| x1
|-2-|
|-0-|
|---|




Riff 5a

 1 + 2 + 3 + 4 + 1 + 2 + 3 + 4 + 1 + 2 + 3 + 4 + 1 + 2 + 3 + 4 +
|---------------|---------------|---------------|---------------|
|---------------|---------------|---------------|---------------|
|---------------|---------------|---------------|---------------| x1
|2--------------|---------------|---------------|1-------0------|
|0--------------|3--------------|2--------------|---------------|
|---------------|---------------|---------------|---------------|




Solo I (2:51)
=============

Riff 5a x 4




Riff 5b

 1 + 2 + 3 + 4 + 1 + 2 + 3 + 4 + 1 + 2 + 3 + 4 + 1 + 2 + 3 + 4 +
|---------------|---------------|---------------|---------------|
|---------------|---------------|---------------|---------------|
|---------------|---------------|---------------|3-------2------| x3
|2--------------|5--------------|4--------------|1-------0------|
|0--------------|3--------------|2--------------|---------------|
|---------------|---------------|---------------|---------------|




Solo II (3:31)
==============

Riff 5a x 3




Riff 5c

 1 + 2 + 3 + 4 + 1 + 2 + 3 + 4 + 1 + 2 + 3 + 4 + 1 + 2 + 3 + 4 +
|---------------|---------------|---------------|---------------|
|---------------|---------------|---------------|---------------|
|---------------|---------------|2--------------|3-------2------| x1
|2--------------|5--------------|0--------------|1-------0------|
|0--------------|3--------------|---------------|---------------|
|---------------|---------------|---------------|---------------|




Riff 5d

 1 + 2 + 3 + 4 + 1 + 2 + 3 + 4 + 1 + 2 + 3 + 4 + 1 e + a 2 e + a 3 e + a 4 e + a
|---------------|---------------|---------------|-------------------------------|
|---------------|---------------|---------------|-------------------------------|
|---------------|---------------|2--------------|3-----3-----3---2-----2-----2--| x1
|2--------------|5--------------|0--------------|1-----1-----1---0-----0-----0--|
|0--------------|3--------------|---------------|-------------------------------|
|---------------|---------------|---------------|-------------------------------|




Main Riff/Verse III (4:00)
==========================

Riff 2a x 1

Riff 2b x 1

Riff 2a x 1

Riff 2c x 1

Riff 2a x 1




Ending Riff

 1 e + a 2 e + a 3 e + a 4 e + a 1 e + a 2 e + a 3 e + a 4 e + a 1 e + a 2 e + a 3 e + a 4 e + a 
|-------------------------------|-------------------------------|-------------------------------|
|-------------------------------|-------------------------------|-------------------------------|
|-------------------------------|-------------------------------|-------------------------------| x1
|7---------------7--------------|-------------------------------|-------------------------------|
|5---------------5-------5---5--|5---6----------6----3----------|3---0--------------------------|
|-------------------------------|-------------------------------|-------------------------------|




And that's it!




************************************

| /   slide up
| \   slide down
| h   hammer-on
| p   pull-off
| v   vibrato
| +   harmonic
| •   mute note
| b   bend
| pb  pre-bend
| br  bend release
| pbr pre-bend release
| brb bend release bend

************************************
Добавлено: 27.11.2015
Другие материалы по этой песне:
  • Аккорды и текст

Страница создана 27.11.2015
http://primanota.ru/witchfinder-general/soviet-invasion-chords.htm
Привет, Гость.
Предлагаем пройти революционный курс по гитаре.
Подарок от PrimaNota.Ru, забирай!