PrimaNota.ru - самый крупный в мире бесплатный архив песенных текстов, аккордов, табулатур и нот


Witches And Thieves - Shooting Heroes - бас-таба, видео

Регистрация Запомнить меня
Войти через:  Facebook Google Twitter Vk Yandex Mail.ru

Witches And Thieves - Shooting Heroes - бас-таба, видео

Печатать
Просмотров: 48
-------------------------------------------------------------------------------
                             SHOOTING HEROES - Witches & Thieves
-------------------------------------------------------------------------------
Tabbed by: Sand O' Chet
E-mail: sand44444444@hotmail.com
www.facebook.com/witchesandthieves

Tuning: E-A-D-G (standard)



Intro
G|---------------------------------------------------------------------|
D|---------------------------------------------------------------------|
A|----2---2---0---0----------------------------------------------------|x4
E|--------------------3---3---2---2------------------------------------|




Verse
G|---------------------------------------------------------------------|
D|------------------------------------------------------------4-4-4-4--|
A|----2-2-2-2---------5-5-5-5---------2-2-2-2---------5-5-5-5----------|
E|------------3-3-3-3---------2-2-2-2---------3-3-3-3------------------|
                                                                         x2
G|---------------------------------------------------------------------|
D|---------------------------------------------------------------------|
A|----2-2-2-2---------5-5-5-5--------------------------2~(let ring)----|
E|------------3-3-3-3---------2-2-2-2--3-3-3-3-5-5-5-5-----------------|


Chorus
G|-----------------------------------------------------------------------|
D|------------------------------------------------------------4-4-4-4----|
A|--------------------2-2-2-2-2-2-2-2-----------------2-2-2-2------------|
E|----3-3-3-3-5-5-5-5-----------------3-3-3-3-5-5-5-5--------------------|

G|-----------------------------------------------------------------------|
D|-----------------------------------------------------------------------|
A|----------------------------2-2-0-0-----------------2------------------|
E|----3-3-3-3-5-5-5-5-2-2-2-2---------3-3-3-3---5------------------------|


Back to Intro
G|---------------------------------------------------------------------|
D|---------------------------------------------------------------------|
A|----2---2---0---0----------------------------------------------------|x4
E|--------------------3---3---2---2------------------------------------|


Verse
G|---------------------------------------------------------------------|
D|------------------------------------------------------------4-4-4-4--|
A|----2-2-2-2---------5-5-5-5---------2-2-2-2---------5-5-5-5----------|
E|------------3-3-3-3---------2-2-2-2---------3-3-3-3------------------|

G|---------------------------------------------------------------------|
D|---------------------------------------------------------------------|
A|----2-2-2-2---------5-5-5-5--------------------------2-2-2-2-2-------|
E|------------3-3-3-3---------2-2-2-2--3-3-3-3-5-5-5-5-----------------|


Chorus
G|-----------------------------------------------------------------------|
D|------------------------------------------------------------4-4-4-4----|
A|--------------------2-2-2-2-2-2-2-2-----------------2-2-2-2------------|
E|----3-3-3-3-5-5-5-5-----------------3-3-3-3-5-5-5-5--------------------|

G|-----------------------------------------------------------------------|
D|-----------------------------------------------------------------------|
A|----------------------------2-2-0-0------------------------------------|
E|----3-3-3-3-5-5-5-5-2-2-2-2---------3-3-3-3---5------------------------|

Bridge
G|-------------------------------------------------------------------------|
D|-------------------------------------------////9---////9---9-7-------7-9-|
A|----2~~~~--------2~~~~----------2-2-2-2----------2-------------9-7-9-----|
E|---------3---2--------3----5---------------------------------------------|

G|-----------------------------------------------------------------------|
D|-----------------------------------------------------------------------|
A|----2---0-------------2---0-----------2---0-----------2---0------------|
E|------------3---2-5-----------3---2-5---------3---2-5---------3~~~~~---|



Chorus
G|-----------------------------------------------------------------------|
D|------------------------------------------------------------4-4-4-4----|
A|--------------------2-2-2-2-2-2-2-2-----------------2-2-2-2------------|
E|----3-3-3-3-5-5-5-5-----------------3-3-3-3-5-5-5-5--------------------|

G|----------------------------------------------------------------------------|
D|----------------------------------------------------------------------------|
A|----------------------------2-2-0-0-----------------------------------------|
E|----3-3-3-3-5-5-5-5-2-2-2-2---------3-3-3-3---5-5-5-5-----------------------|


Pre-Outro
G|---------------------------------------------------------------------|
D|---------------------------------------------------------------------|
A|--------------------0-0-0-0-0-0-0-0----------------------------------|x4
E|----3-3-3-3-5-5-5-5--------------------------------------------------|

Outro
G|---------------------------------------------------------------------|
D|---------------------------------------------------------------------|
A|----2-2-0-0-----2~~~~~~~~~~~~~~~~~~~~~~------------------------------|
E|------------3-2------------------------------------------------------|



| /  slide up
| \  slide down
| h  hammer-on
| p  pull-off
| ~  vibrato
| +  harmonic
| x  Mute note
===============================================================================
Добавлено: 05.10.2013
Вам также может быть интересно:
Другие материалы по этой песне:
  • Аккорды и текст

Страница создана 05.10.2013
http://primanota.ru/witches-and-thieves/shooting-heroes-chords.htm
Привет, Гость.
Предлагаем пройти революционный курс по гитаре.
Подарок от PrimaNota.Ru, забирай!