PrimaNota.ru - самый крупный в мире бесплатный архив песенных текстов, аккордов, табулатур и нот


Witchcraft - You Bury Your Head - таба, видео

Регистрация Запомнить меня
Войти через:  Facebook Google Twitter Vk Yandex Mail.ru

Witchcraft - You Bury Your Head - таба, видео

Печатать
Просмотров: 108
Hi there!, here's one of the Witchcraft songbook!.
Some nice sleazy kick ass rock'n'roll riffs and driving hard rock fun!.
Sleazy rock'n'roll - keep the faith!.

You Bury Your Head
Witchcraft
Witchcraft (2004)
Words & Music - Magnus Pelander

Note that this version is tabbed from the split album which is in standard tuning.
And the album version has a 1/4 (ca) step down tuning. 

Intro:
Guitar 1 & 2
E------------------------------------|
B------------------------------------|  yeah!
G------------------------------------|
D------------------------------------|
A-5---5-7-8---8-7-5---5-7-8----------|
E-3---3-5-6---6-5-3---3-5-6----------|


Verse riff:
Guitar 1 & 2            Lyrics:
E------------------------------------------|    They say you look like a gypsy!
B------------------------------------------|    and got the smile of a thief
G------------------------------------------|    you wear your clothes like a hippie!
D------------------------------------------|    in you they've got no believe
A-8/10---10---13-12-12-13------------------|          etc
E-6/8----8----11-10-10-11------------------|


Riff 3:
Guitar 1 & 2
E------------------------------------------------|
B------------------------------------------------|
G------------------------------------------------|
D------7-----------------------------------------|
A------------6-7-6------6------------------------|
E-5-------------------8-------5---8---7-8-7---0--|


Riff3 Fill:
E------|
B------|
G------|
D------|
A-6tr7
E------


Riff4:
Guitar 1
E----------5---------------5--------------5-----------------|
B------------5---------------5--------------5---------------|
G--------------5---------------5--------------5-------------|
D-----7----------------7--------------7---------------------|
A---7---7------------7---7----------7---7--------5/7-7--7---|
E-5----------------5--------------5--------------3/5-5--5---|
This is a pretty primitive version, I'm not sure what they exactly play, but it's sounds 
equal to what they play.
Meanwhile guitar 2 play some fills in Am Pentaton.


Riff5:
Guitar 1 & 2
E--------------------------------------------------|
B--------------------------------------------------|
G--------------------------------------------------|
D--------------------------------------------------|
A-10----10--12-13---13-12-10----10-12-13-----------|
E-8-----8---10-11---11-10-8-----8--10-11-----------|


Riff 6:
Guitar 1 & 2
E-------------------------------------|
B-------------------------------------|
G-------------------------------------|
D-------------------------------------|
A-10----12-13---12-10----12-13--------|
E-8-----10-11---10-8-----10-11--------|


now play a nice rock solo in Cm pentaton (Guitar 1 & 2)


End:
Guitar 1 & 2
E--------------------------------|
B--------------------------------|
G--------------------------------|
D--------------------------------|
A-10----12-13---12-10------------|
E-8-----10-11---10-8-------------|

Structure:
Riff 1 x2
Verse Riff  x12
Riff 3 x2
Verse Riff x12
Riff3 x2
Riff4 x6
Riff 5 x1
Riff 6 x1

Have fun and enjoy!

Tabbed by Mads Yde Søndergaard aka. Ridder Lugtepik
Добавлено: 29.07.2012
Другие материалы по этой песне:
  • Аккорды и текст

Страница создана 29.07.2012
http://primanota.ru/witchcraft/you-bury-your-head-chords.htm
Привет, Гость.
Предлагаем пройти революционный курс по гитаре.
Подарок от PrimaNota.Ru, забирай!