PrimaNota.ru - самый крупный в мире бесплатный архив песенных текстов, аккордов, табулатур и нот


Witchcraft - When The Sceams Come - таба, видео

Регистрация Запомнить меня
Войти через:  Facebook Google Twitter Vk Yandex Mail.ru

Witchcraft - When The Sceams Come - таба, видео

Печатать
Просмотров: 94
Hello.

Here's one more of my Witchcraft songbook!.
I know that the song is a Pentagram cover, but I decided to make a tab of 
Witchcraft's version anyway.

I f'ing love this song every single recording of it is pure rockage.

It's a real nice jammer.. anyway here we go

Tabbed by Mads Yde aka Ridder Lugtepik

When the Screams Come
Witchcraft
Firewood (2005)
Words and music by Bobby Liebling

Riff 1:
E---------------------------------------|
B---------------------------------------|
G---------------------------------------| x2
D-----5---5-7-7b------------------------|
A-7-7---7-------------3b--------8-7-5-7-|
E-----------------3b------8-7-5---------|

Riff 2:
E-----5------------------------|
B-----5------------------------|
G-----5---9--7-7--5-5--5-------|
D-7-------9--7-7--5-5--5-------| x2
A-7-------7--5-5--3-3--3--5~---|
E-5--------------------------0-|

Riff 3:
E-----------------|
B-----------------|
G-----------------|
D-7---8---5---2---| x1
A-7---8---5---2---|
E-5---6---3---0---|

Riff 1 x2

Riff 4:
E--------------|
B--------------|
G--------------|
D------9-------| x4
A-7-10---9-7~--|
E--------------|

Riff 5:
E-------------------------|
B-------------------------|
G-----------9----9--------|
D-7-7--/10---10---10-7----| x4
A-7-7---------------------|
E-5-5---------------------|

Riff 6:
E-------------|
B-------------|
G-------------|
D-5---6--7----| x4
A-5---6--7----|
E-3---4--5----|

Solo, play riff 6 as backing x12

Riff 7:
E---------------|
B---------------|
G---------------|
D---------------| x4
A---------5-4-3-|
E-0-0-3-3-------|

Riff 8:
E---------------|
B---------------|
G---------------|
D---------7-6-5-| x4
A-----5-5-------|
E-7-7-----------|

Riff 9:
E-------------------------------------|
B-------------------------------------|
G---------------------------------7---|
D-7-7---10--7-7---10--7-7---------6---| x1
A-7-7---10--7-7---10--7-7---------7---|
E-5-5---8---5-5---8---5-5-------------|

Riff 1

Outro:
E--------------------|
B-10/12--------------|
G-10/12-12--9--9/14--|
D-------12--9--9/14--|
A--------------------|
E--------------------|

Structure
Riff 1 x2
Riff 2 x2
Riff 3 x1
Riff 1 x2
Riff 4 x4
Riff 5 x4
Riff 6 x16
Riff 7 x4
Riff 8 x4
Riff 9 x1
Riff 1 x2
Outro x1

Tabbed by Mads Yde aka Ridder Lugtepik
Enjoy, and please rate.
Добавлено: 29.07.2012
Другие материалы по этой песне:
  • Аккорды и текст

Страница создана 29.07.2012
http://primanota.ru/witchcraft/when-the-sceams-come-chords.htm
Привет, Гость.
Предлагаем пройти революционный курс по гитаре.
Подарок от PrimaNota.Ru, забирай!