PrimaNota.ru - самый крупный в мире бесплатный архив песенных текстов, аккордов, табулатур и нот


Witchcraft - Please Dont Forget Me - таба, видео

Регистрация Запомнить меня
Войти через:  Facebook Google Twitter Vk Yandex Mail.ru

Witchcraft - Please Dont Forget Me - таба, видео

Печатать
Просмотров: 211
Hello.

Here's one more of my Witchcraft songbook!
This is a cover of the earliest known Pentagram line-up ever, I asked Liebling himself 
he said it was more a Pentagram tune than a Stone Bunny tune.

Anyway, it's an easy and jazzy song.. enjoy!

Please Don't Forget Me
Witchcraft
Witchcraft 2004
Words and music by: Bobby Liebling

Tabbed by Mads Yde aka. Ridder Lugtepik

Intro/ riff 1
E--------------------------------|------------------------------|
B--------------------------------|------------------------------|
G---7--9-99-7--------------------|------------------9h10p9h10p9-|
D-9-----------9--7--5--5-7-9-7-5-|-/9--7-5--/9--7-5-------------|
A--------------------------------|------------------------------|
E--------------------------------|------------------------------|
*This is harmonized by guitar 2

Verse 1
E-------------------------|------------------|
B-------------------------|------------------|
G-9----9--7----7----------|------------------|
D-9----9--7----7--10----10|--10--9--5--2-----|
A-7----7--5----5--10----10|--10--9--5--2-----|
E-----------------8-----8-|--8---7--3--0-----|
  I wanted to know...

Solo part
Bass line goes
G-----------------|
D-----------------|
A-------2-3-2-----|
E-0-2-3-------3-2-|
just has some E power chords here and there

2 verse
E--------------------------|---------------------------|
B--------------------------|---------------------------|
G-9-9--9--9-9--------------|-7-7--7--7-7--9--9-9--9-9--|
D-9-9--9--9-9--5-5--5--5-5-|-7-7--7--7-7--9--9-9--9-9--|
A-7-7--7--7-7--5-5--5--5-5-|-5-5--5--5-5--7--7-7--7-7--|
E--------------3-3--3--3-3-|---------------------------|
  Help me please 'cause I'm down...

Repeat intro and end in
E------------------------|
B------------------------|
G-9----------------------|
D-9----------------------|
A-7----------------------|
E------------------------|

Quick tab legend
h = hammer on
p = pull off
/ = slide

Listen to the song and figure out the structure :)

Enjoy!

Tabbed by Mads Yde aka. Ridder Lugtepik
Добавлено: 13.05.2012
Другие материалы по этой песне:
  • Аккорды и текст

Страница создана 13.05.2012
http://primanota.ru/witchcraft/please-dont-forget-me-chords.htm
Привет, Гость.
Предлагаем пройти революционный курс по гитаре.
Подарок от PrimaNota.Ru, забирай!