PrimaNota.ru - самый крупный в мире бесплатный архив песенных текстов, аккордов, табулатур и нот


Witchcraft - No Angel Or Demon - таба, видео

Регистрация Запомнить меня
Войти через:  Facebook Google Twitter Vk Yandex Mail.ru

Witchcraft - No Angel Or Demon - таба, видео

Печатать
Просмотров: 108
Hello to y'all.

What would happen if Black Sabbath met the Rolling Stones and the two decided two write 
song together?. Pretty much this I think!.

It's a great and easy song, and loads of fun to play.

Since there was only a GP tab around I decided that I would write it down as a regular tab.

Originally tabbed by Hell_paso13
Interpretered by Mads Yde aka. Ridder Lugtepik

Note that the album version is tuned down between Standard and a ½ step down (somewhere 
can't find, hehe)

No Angel or Demon
Witchcraft (2004)
Witchcraft
Words & Music: Magnus Pelander

Enjoy!.

Intro:
Guitar 1                              .  .  .          .
E--------------|---------------|--------------|----------------|
B---------15---|-17b-----------|-----17-17-17-|-17p15----------|
G-----/16----16|---------------|--------------|-------16-16----|
D--------------|---------------|--------------|----------------|
A--------------|---------------|--------------|----------------|
E--------------|---------------|--------------|----------------|
                                      these last two bars are
Guitar 2                              out of sync, sorry.
E--------------|---------------|--------------|---------------|
B--------------|---------------|--------------|---------------|
G--------------|---------------|--------------|---------------|
D--------------|---------------|--------------|---------------|
A--------------|-9----9-9----9-|-9---9--7-7---|-9----9-9----9-|
E--------------|-7----7-7----7-|-7---7--5-5---|-7----7-7----7-|

Guitar 2 pattern (continued)
E--------------|
B--------------|
G--------------|
D--------------|
A-9---9--7-7---|
E-7---7--5-5---|


Straight Into Verse (Riff 1):
Guitar 1 & 2
E---------------|--------------|
B---------------|--------------|
G---------------|--------------|            x 4
D---------------|--------------|
A-9----9-9----9-|-9---9--7-7---|
E-7----7-7----7-|-7---7--5-5---|
  No angel or deemoooon

Then it goes (riff 2):
Guitar 1 & 2
E-----------------|---------------|
B-----------------|---------------|
G-----------------|---------------|    x 2
D-----------------|---------------|
A-9-9-9-9-9-9-9-9-|-9-9-9-9--7-7--|
E-7-7-7-7-7-7-7-7-|-7-7-7-7--5-5--|

Back to riff 1:
Guitar 1 & 2
E---------------|--------------|
B---------------|--------------|
G---------------|--------------|            x 2
D---------------|--------------|
A-9----9-9----9-|-9---9--7-7---|
E-7----7-7----7-|-7---7--5-5---|


Chorus riff:
Both guitars
E--------5----5-|--------1----1--------------|
B--------5----5-|--------1----1--------------|
G--------5----5-|--------2----2-         x 7-|
D--------7----7-|--------3----3--------------|
A-7-----------7/|/3-----------3--------------|
E-5-----------5/|/1-----------1--------------|

End of Chorus (retro):
Guitar 1 goes
E---------------|---------------|-----19-19----|-17/-19-19----|
B---------15----|-17b-----------|-----------19-|--------------|
G-----/16----16-|---------------|--------------|--------------|
D---------------|---------------|--------------|--------------|
A---------------|---------------|--------------|--------------|
E---------------|---------------|--------------|--------------|
                                 Again out of sync, sorry.
E--------------|---------------|--------------|---------------|
B--------------|---------------|--------------|---------------|
G--------------|---------------|--------------|---------------|
D--------------|---------------|--------------|---------------|
A-7------------|-9----9-9----9-|-9---9--7-7---|-9----9-9----9-|
E-5------------|-7----7-7----7-|-7---7--5-5---|-7----7-7----7-|
  
Guitar 2 pattern (continued)
E--------------|
B--------------|
G--------------|
D--------------|
A-9---9--7-7---|
E-7---7--5-5---|

Verse 2:
Guitar 1 & 2
E---------------|--------------|
B---------------|--------------|
G---------------|--------------|            x 4
D---------------|--------------|
A-9----9-9----9-|-9---9--7-7---|
E-7----7-7----7-|-7---7--5-5---|
  The life that I'm leeadiiiing

Then it goes (riff 2):
Guitar 1 & 2
E-----------------|---------------|
B-----------------|---------------|
G-----------------|---------------|    x 4
D-----------------|---------------|
A-9-9-9-9-9-9-9-9-|-9-9-9-9--7-7--|
E-7-7-7-7-7-7-7-7-|-7-7-7-7--5-5--|


Chorus:
Both guitars
E--------5----5-|--------1----1---------|
B--------5----5-|--------1----1---------|
G--------5----5-|--------2----2---------|         x 10
D--------7----7-|--------3----3---------|
A-7-----------7/|/3-----------3---------|
E-5-----------5/|/1-----------1---------|


Bridge:
Guitar 1
E---------------------------------|-----------------------------|
B---------------------------------|-----------------------------|
G---------------------------------|---------------------------7-|
D---------5h7--7p5----------------|---------5h7--7p5-----7-9----|
A-----5h7-------------------------|-----5h7---------------------|
E-5h8--------------8p5------------|-5h8--------------8p5--------|
     1st, 2nd and 3rd time          4th time

Guitar 2
E-x-x-x-x-x-x-x-x-x-x-x-x-x-x-x-x-|-x-x-x-x-x-x-x-x-x-x-x-x-x-x-x-x-|
B-x-x-x-x-x-x-x-x-x-x-x-x-x-x-x-x-|-x-x-x-x-x-x-x-x-x-x-x-x-x-x-x-x-|
G-x-x-x-x-x-x-x-x-x-x-x-x-x-x-x-x-|-x-x-x-x-x-x-x-x-x-x-x-x-x-x-x-x-|
D-x-x-x-x-x-x-x-x-x-x-x-x-x-x-x-x-|-x-x-x-x-x-x-x-x-x-x-x-x-x-x-x-x-|
A-x-x-x-x-x-x-x-x-x-x-x-x-x-x-x-x-|-x-x-x-x-x-x-x-x-x-x-x-x-x-x-x-x-|
E-x-x-x-x-x-x-x-x-x-x-x-x-x-x-x-x-|-x-x-x-x-x-x-x-x-x-x-x-x-x-x-x-x-|
     1st, 2nd and 3rd time          4th time


Backing for solo 1:
Guitar 2
E-7-7---7---5-5---|-3-3---3---5-5---|
B-7-7---7---5-5---|-3-3---3---5-5---|
G-7-7---7---6-6---|-4-4---4---6-6---|    x 4
D-9-9---9---7-7---|-5-5---5---7-7---|
A-9-9---9---7-7---|-5-5---5---7-7---|
E-7-7---7---5-5---|-3-3---3---5-5---|
  Meanwhile Guitar 1 plays a solo in Bm pentaton

Backing for solo 2:
E----------------|----------------|
B----------------|----------------|
G----------------|----------------|        x 4
D----------------|----------------|
A-9-9--9-9/7-7---|-5-5--5-5/7-7---|
E-7-7--7-7/5-5-0-|-3-3--3-3/5-5-0-|
  Meanwhile Guitar 2 plays a solo in Bm penaton


Riff 1:
Guitar 1 & 2
E---------------|--------------|
B---------------|--------------|
G---------------|--------------|            x 2
D---------------|--------------|
A-9----9-9----9-|-9---9--7-7---|
E-7----7-7----7-|-7---7--5-5---|


Riff 2 with a small variation:
Guitar 1 & 2
E-----------------|------------------|
B-----------------|------------------|
G-----------------|------------------|   x 2
D-----------------|------------------|
A-9-9-9-9-9-9-9-9-|-9-9-9-9-9-9-7-7--|
E-7-7-7-7-7-7-7-7-|-7-7-7-7-7-7-5-5--|


End:
Both guitars
E-----------------|
B-----------------|
G-----------------|     x 1
D-----------------|
A-10--9---7///9---|
E-8---7---5///7---|
  with a triplet feel


Song structure:
Intro x 1
Riff 1 x 4
Riff 2 x 2
Riff 1 x 2
Chorus x 7
End of chorus (retro) x 1
Riff 1 x 4
Riff 2 x 4
Chorus x 10
Bridge x 4
Backing for solo 1 x 4
Backing for solo 2 x 4
Riff 1 x 2
Riff 2 x 2
End x 1

Tab Legend:
~ vibrato
b bend
/ slide
h hammer on
p pull off
. staccato
x dead note

Originally tabbed by Hell_Paso13
Interpretered by Mads Yde aka Ridder Lugtepik

Enjoy!
Добавлено: 19.05.2012
Другие материалы по этой песне:

Страница создана 19.05.2012
http://primanota.ru/witchcraft/no-angel-or-demon-chords.htm
Привет, Гость.
Предлагаем пройти революционный курс по гитаре.
Подарок от PrimaNota.Ru, забирай!