PrimaNota.ru - самый крупный в мире бесплатный архив песенных текстов, аккордов, табулатур и нот


Wishbone Ash - Like A Child - аккорды и текст, таба, видео

Регистрация Запомнить меня
Войти через:  Facebook Google Twitter Vk Yandex Mail.ru

Wishbone Ash - Like A Child - аккорды и текст, таба, видео

Печатать
Просмотров: 117
Like A Child
Wishbone Ash
		   Like A Child
by Wishbone Ash
from the album No Smoke Without Fire

Transcribed by Rob Watson robert.watson14@btinternet.com

                        Freely

                        Bm

E|----------15-14-12---|---10h12b14-12b14-12b14-12-10-12-(12pb13)r12-10-12-14-10sb------|
B|s12-11-12----------15|12---------------------------------------------------------12-12|
G|---------------------|----------------------------------------------------------------|
D|---------------------|----------------------------------------------------------------|
A|---------------------|----------------------------------------------------------------|
E|---------------------|----------------------------------------------------------------|

                       Em

E|----------15-14-12---|-----------14------14------14-----14------14--------------------|
B|s12-11-12----------15|15b17-17b19---17b19---17b19---17b19--17b19----17b19-17-15-17-17-|
G|---------------------|----------------------------------------------------------------|
D|---------------------|----------------------------------------------------------------|
A|---------------------|----------------------------------------------------------------|
E|---------------------|----------------------------------------------------------------|

                       F#

E|----------15-14-12---|--------------------------------------------------|
B|s12-11-12----------15|15b17-------17b19----17b19-17b19-17----17b19-17-17|
G|---------------------|------15-15-------15----------------15------------|
D|---------------------|--------------------------------------------------|
A|---------------------|--------------------------------------------------|
E|---------------------|--------------------------------------------------|

Intro Part 2

  F#            Bm          F#           Bm

E|-------------|-----------|------s9----|----------------|
B|--7-7-7b8-7-5|3p2--------|--7-7----7--|----------------|
G|-------------|----4------|-----------9|7---------------|
D|-------------|-----------|------------|----------------|
A|-------------|-----------|------------|----------------|
E|-------------|-----------|------------|----------------|

  F#             Bm        G      Em             F#               The sky

E|------s9-10-12|10-9h10p9-7-9-10|7-9-10-12-10-9|9-10s12|12-14b15|14|
B|--7-7---------|----------------|--------------|-------|--------|--|
G|--------------|----------------|--------------|-------|--------|--|
D|--------------|----------------|--------------|-------|--------|--|
A|--------------|----------------|--------------|-------|--------|--|
E|--------------|----------------|--------------|-------|--------|--|
    Bm D   A          Em
The sky is changing
    G                     Bm
The clouds are gathering, we can see
             G             F#
It's growing darker day by day,
           Bm    D
But I'm so high
    A              Em
Within this stormy weather
    G                  Bm
God is the wind, could take my soul,
G    Em   Bm
Even as I pray.
A               G
  You with your lack of time
F#                    Bm
Me with my lack of space,
Em            Bm
Where are you now my love?
G            Em       Bm
Lost in your reckless dreams.

  Bm      D                F#

E|-------|------10--------|----------|------------------|
B|-------|10b12----r10-8-7|----------|------------------|
G|----7-9|----------------|-9-7---7-9|9b11--------------|
D|-------|----------------|-----9----|------------------|
A|-------|----------------|----------|------------------|
E|-------|----------------|----------|------------------|

Repeat Intro Part 2

I tried to share your garden of Eden,
But temptation trims the wings of those
Who only wish to know.
Denied - stop looking for a reason,
It's hard to face the time to fly,
Harder still to go.

You with your lust for time,
Me with my lust for space,
Where are you now my love?
Lost in your restless dreams.

  Asus4         A            Asus4           A                  D

E|-----5-s7---5|5-----------|-----5-7s9----7|9-10-12-12b14----9|10|
B|---5------7--|------------|---5-------10--|--------------12--|--|
G|s6-----------|------------|s6-------------|------------------|--|
D|-------------|------------|---------------|------------------|--|
A|-------------|------------|---------------|------------------|--|
E|-------------|------------|---------------|------------------|--|

D                                     G              A
  And though we're strong and tough,  can our hearts open wide enough,

Bm               G                  D        A
To recognise the faults and then to smile?

D             D/F#              G                    A
And though we tear each other's hearts and minds, we show no sense,

Bm                    G        D             D/F#
We can still have our innocence,like a child.

  D  D/F#    G        Em     F#    F#/A#   Bm           A

E|----------|---------------|-------------|------------------------|
B|----------|---------------|7------7-----|7-8-7-10-8-7------------|
G|----------|s9---7-9-7-9b11|--9b11---9b11|-------------9-7-6------|
D|7--s9---7-|---9-----------|-------------|-------------------9-7--|
A|------9---|---------------|-------------|-----------------------7|
E|----------|---------------|-------------|------------------------|

  D      D/F#      G                        Em

E|------------7---|------10-------10------------10------------10--------|
B|--------------10|10b12----10b12----(12)r11b12----(12)r11b12----(12)r11|
G|-------9b11-----|-----------------------------------------------------|
D|--s9-7----------|-----------------------------------------------------|
A|5---------------|-----------------------------------------------------|
E|----------------|-----------------------------------------------------|

  F#                         Bm    A                   D

E|--------------------------|------s14-12s10-7----7-10|10-------------|
B|b12-11------------11-12h14|12----------------10-----|10b12-10-8-7---|
G|---------------11---------|-------------------------|-------------7-|
D|------------11------------|-------------------------|---------------|
A|-------9s13---------------|-------------------------|---------------|
E|--------------------------|-------------------------|---------------|

  G            Em F#   F#A#    Bm     A                       D



E|10-------------|9--9--9--|10-10--12b14r12-10-12-10----10|---------10----10-10----10-10|
B|10b12-10-8-7---|---------|-------------------------12---|10-10h12-10h12----10h12------|
G|-------------7-|--7--7--7|------------------------------|-----------------------------|
D|---------------|---------|------------------------------|-----------------------------|
A|---------------|---------|------------------------------|-----------------------------|
E|---------------|---------|------------------------------|-----------------------------|

  G   Em                F#          F#A#        Bm          A                 D   Etc

E|----------------14-15|15h17-17b18-17b18-17-18|18b19-17-15-14---------------|--|
B|12-----------15------|-----------------------|---------------15----15-15b17|15|
G|---------s14---------|-----------------------|------------------14---------|--|
D|-----s12-------------|-----------------------|-----------------------------|--|
A|---------------------|-----------------------|-----------------------------|--|
E|---------------------|-----------------------|-----------------------------|--|     
Добавлено: 14.06.2013
Другие материалы по этой песне:
  • Аккорды и текст

Страница создана 25.05.2012
http://primanota.ru/wishbone-ash/like-a-child-chords.htm
Привет, Гость.
Предлагаем пройти революционный курс по гитаре.
Подарок от PrimaNota.Ru, забирай!