PrimaNota.ru - самый крупный в мире бесплатный архив песенных текстов, аккордов, табулатур и нот


Wishbone Ash - Lady Whiskey - аккорды и текст, таба, бас-таба, видео

Регистрация Запомнить меня
Войти через:  Facebook Google Twitter Vk Yandex Mail.ru

Wishbone Ash - Lady Whiskey - аккорды и текст, таба, бас-таба, видео

Печатать
Просмотров: 112
Lady Whiskey
Wishbone Ash
		   Lady Whiskey
by Wishbone Ash
from the album Wishbone Ash

Transcribed by Robert Watson robertwatson14@btinternet.com
  Gtr1
E|-------------|---------------|-------------|---------------|
B|-------------|---------------|-------------|---------------|
G|4-2-4-2-0----|--------0h2----|4-2-4-2-0----|--------0h2----|
D|----------2--|0h2------------|----------2--|0h2------------|
A|-------------|---------------|-------------|---------------|
E|-------------|---------------|-------------|---------------|
 |             |               |             |               |
 |Gtr2         |               |             |               |
E|-------------|---------------|-------------|---------------|
B|-------------|---------------|-------------|---------------|
G|-------------|---------------|-------------|---------------|
D|-------------|---------------|-------------|---------------|
A|5-4-5-4-2----|0h2-----2h4----|5-4-5-4-2----|0h2-----2h4----|
E|----------3--|---------------|----------3--|---------------|

  Lady Whiskey's such a sad sight stumbling as she walks
E|-------------|-----------------|-------------|---------------|
B|-------------|-----------------|-------------|---------------|
G|4-2-4-2-0----|--------0h2------|4-2-4-2-0----|--------0h2----|
D|----------2--|0h2--------------|----------2--|0h2------------|
A|-------------|-----------------|-------------|---------------|
E|-------------|-----------------|-------------|---------------|
 |             |                 |             |               |
 |             |                 |             |               |
E|-------------|-----------------|-------------|---------------|
B|-------------|-----------------|-------------|---------------|
G|-------------|-----------------|-------------|---------------|
D|-------------|-----------------|-------------|---------------|
A|5-4-5-4-2----|0h2-----2h4------|5-4-5-4-2----|0h2-----2h4----|
E|----------3--|-----------------|----------3--|---------------|

  She even hates herself sometimes keep well clear of her on Saturday night
E|-------------|-----------------|--------------------------|-------------|
B|-------------|-----------------|--------------------------|-------------|
G|4-2-4-2-0----|--------0h2------|--------------------------|-------------|
D|----------2--|0h2--------------|2-------------------------|-------------|
A|-------------|-----------------|--------------------------|-------------|
E|-------------|-----------------|--------------------------|-------------|
 |             |                 |                          |             |
 |             |                 |                          |             |
E|-------------|-----------------|--------------------------|-------------|
B|-------------|-----------------|--------------------------|-------------|
G|-------------|-----------------|--------------------------|-------------|
D|-------------|-----------------|--------------------------|-------------|
A|5-4-5-4-2----|0h2-----2h4------|--------------------------|-------------|
E|----------3--|-----------------|0-------------------------|-------------|

  4/4              2/4    4/4
E|----------------|------|----------------|----------|
B|------3---------|------|------3---------|----------|
G|2s4------4s2---0|2p0---|2s4------4s2--0-|2p0-------|
D|----------------|-----2|----------------|-----2p0-2|
A|----------------|------|----------------|----------|
E|----------------|------|----------------|----------|
 |                |      |                |          |
 |                |      |                |          |
E|------10--------|------|------10--------|----------|
B|10s12----12s10-8|10-8--|10s12----12s10-8|10-8------|
G|----------------|-----9|----------------|-----9-7-9|
D|----------------|------|----------------|----------|
A|----------------|------|----------------|----------|
E|----------------|------|----------------|----------|

               Drowns her sorrows               eases her pain
E|------------|------------------|-------------|---------------|
B|5-3-5-3-1---|-----------1h3----|5-3-5-3-1----|----------1h3--|
G|----------2-|0h2---------------|----------2--|0h2------------|
D|------------|------------------|-------------|---------------|
A|------------|------------------|-------------|---------------|
E|------------|------------------|-------------|---------------|
 |            |                  |             |               |
 |            |                  |             |               |
E|------------|------------------|-------------|---------------|
B|------------|------------------|-------------|---------------|
G|------------|------------------|-------------|---------------|
D|5-4-5-4-2---|0h2--------2h4----|5-4-5-4-2----|0h2-----2h4----|
A|----------3-|------------------|----------3--|---------------|
E|------------|------------------|-------------|---------------|

               Wait till tomorrow         she'll do the same again
E|------------|------------------|-------------|--------------1|
B|5-3-5-3-1---|-----------1h3----|5-3-5-3-1----|----------1h3--|
G|----------2-|0h2---------------|----------2--|0h2------------|
D|------------|------------------|-------------|---------------|
A|------------|------------------|-------------|---------------|
E|------------|------------------|-------------|---------------|
 |            |                  |             |               |
 |            |                  |             |               |
E|------------|------------------|-------------|---------------|
B|------------|------------------|-------------|---------------|
G|------------|------------------|-------------|---------------|
D|5-4-5-4-2---|0h2--------2h4----|5-4-5-4-2----|0h2-----2h4----|
A|----------3-|------------------|----------3--|---------------|
E|------------|------------------|-------------|---------------|

  D

E|---------10----------10---------|10----------10----------10---|
B|------10----------10----------10|---------10----------10----10|
G|12b14-------12b14-------12b14---|---12b14-------12b14---------|
D|--------------------------------|-----------------------------|
A|--------------------------------|-----------------------------|
E|--------------------------------|-----------------------------|

E|------10-10|-----------------------------|
B|13b15------|13-10-------10-10------------|
G|-----------|------12b14-------12-10-12b14|
D|-----------|-----------------------------|
A|-----------|-----------------------------|
E|-----------|-----------------------------|

Harmony Part

  0.40
E|-----------|---------7-8|10-8-7--------|7-8-7--|
B|--7-10-8-7-|10-8-7-8----|-------10-8-10|------8|
G|-----------|------------|--------------|-------|
D|-----------|------------|--------------|-------|
A|-----------|------------|--------------|-------|
E|-----------|------------|--------------|-------|
 |           |            |              |       |
 |           |            |              |       |
E|-----------|------------|7-------------|-------|
B|----7------|-7-------8--|--10-8-7-----7|8-7-8--|
G|------9-7--|---9-7-9----|----------9---|------9|
D|--9--------|------------|--------------|-------|
A|-----------|------------|--------------|-------|
E|-----------|------------|--------------|-------|



E|-----------|----------7-8p7|10-8-7--10-8-7-|---7-----|
B|---7-10-8-7|-10-8-7-8------|---------------|10---10-8|
G|-----------|---------------|---------------|---------|
D|-----------|---------------|---------------|---------|
A|-----------|---------------|---------------|---------|
E|-----------|---------------|---------------|---------|
 |           |               |               |         |
 |           |               |               |         |
E|-----------|---------------|7--------7-----|---------|
B|--0-0-7----|--7-------8-10-|--10-8-----10-8|-7--8-7--|
G|--------9-7|----9-7-9------|---------------|--------9|
D|-----------|---------------|---------------|---------|
A|-----------|---------------|---------------|---------|
E|-----------|---------------|---------------|---------|



E|-------------|---------------|-------------|---------------|
B|-------------|---------------|-------------|---------------|
G|4-2-4-2-0----|----x-x-0h2-x-x|4-2-4-2-0----|----x-x-0h2-x-x|
D|----------2-x|0h2------------|----------2-0|0h2------------|
A|-------------|---------------|-------------|---------------|
E|-------------|---------------|-------------|---------------|
 |             |               |             |               |
 |             |               |             |               |
E|-------------|---------------|-------------|---------------|
B|-------------|---------------|-------------|---------------|
G|-------------|---------------|-------------|---------------|
D|-------------|---------------|-------------|---------------|
A|5-4-5-4-2----|0h2-----2h4----|5-4-5-4-2----|0h2-----2h4----|
E|----------3--|---------------|----------3--|---------------|

 Main Solo

  D

E|-----------------|-----------------|-----------------------------|
B|------10-------10|------10-------10|-----------------------------|
G|12b14----12b14---|12b14----12b14---|12b14-12b14-12b14r12-10-12-10|
D|-----------------|-----------------|-----------------------------|
A|-----------------|-----------------|-----------------------------|
E|-----------------|-----------------|-----------------------------|

                       B5           A5   G5   E5   B5          A5

E|--------------------|-----------------|---------|-------------------|
B|--------------------|-----------------|---------|---------15--------|
G|---------10----10---|----12-14----12--|-------14|12-14b16----r14b16-|
D|12-11-12----12----12|s14-------14-----|---------|-------------------|
A|--------------------|-----------------|---------|-------------------|
E|--------------------|-----------------|---------|-------------------|

  G5        E5      B5          A5          G5 E5 B5         A5

E|-----------------|-----------------------|-----|15b17(pr16)(pb17)(pr16)|
B|----------12-15--|15b17-15-(15pb17)r15b17|--12-|-----------------------|
G|-----------------|-----------------------|-----|-----------------------|
D|-----------------|-----------------------|-----|-----------------------|
A|-----------------|-----------------------|-----|-----------------------|
E|-----------------|-----------------------|-----|-----------------------|

  G5        E5          B5   A5  G5 E5            B5    A5   G5   E5

E|(pb17)r15-12----12-10|10------|(10pb12)r10-7---|----------|------------|
B|-------------12------|--------|--------------10|10-10-10-8|7-----------|
G|---------------------|--------|----------------|----------|------------|
D|---------------------|--------|----------------|----------|------------|
A|---------------------|--------|----------------|----------|------------|
E|---------------------|--------|----------------|----------|------------|

  B5   A5  G5    E5     B5  A5   G5   E5   B5    A5   G5   E5

E|7-------|-----------7|6-------|---------|----------|------------|
B|--------|----------8-|--------|--------8|8---------|------------|
G|--------|---------9--|--------|------9--|--9-------|------------| etc
D|--------|------------|--------|---------|----------|7h9-7h9-7h9-|
A|--------|------------|--------|---------|----------|------------|
E|--------|------------|--------|---------|----------|------------|     
Добавлено: 26.10.2013
Другие материалы по этой песне:

Страница создана 29.04.2012
http://primanota.ru/wishbone-ash/lady-whiskey-chords.htm
Привет, Гость.
Предлагаем пройти революционный курс по гитаре.
Подарок от PrimaNota.Ru, забирай!