PrimaNota.ru - самый крупный в мире бесплатный архив песенных текстов, аккордов, табулатур и нот


Wishbone Ash - Dreams Outta Dust - аккорды и текст, видео

Регистрация Запомнить меня
Войти через:  Facebook Google Twitter Vk Yandex Mail.ru

Wishbone Ash - Dreams Outta Dust - аккорды и текст, видео

Печатать
Просмотров: 84
Уроки эстрадного вокала в Санкт-Петербурге
Dreams Outta Dust
Wishbone Ash
Chords:               Dsus                  D9
                                                       
                    |--3--|              |--5--|
                    |--3--|              |--3--|
                    |--2--|              |--2--|
                    |--0--|              |--0--|
                    |-----|              |-----|
                    |-----|              |-----|

Intro:  

(guitar 1)
       C        G      D    G        C       G    D    Dsus   D9

(guitar 2)
|------------------------------|------------------------10---------|
|--13-12-10--------------------|--13-12-10-----10-12-13------------|
|----------12-11-12-11-9-------|------------12---------------------|
|------------------------12----|-----------------------------------|
|------------------------------|-----------------------------------|
|------------------------------|-----------------------------------|

Verse:

   Em             G  
Now that we're through
   Am              C   G
I guess you'll be leaving
   Em        G
to pastures new.
   Am              C   G
Well, I won't be grieving.
  

Chorus:

  D            Am 
Light outta darkness,
  C            G 
dreams outta dust.
  Em          G
Knowing that you 
  Am          G
sold out my trust.


Verse:

  Em         G
I'm never through
  Am           C   G
through with believing.
  Em           G 
Seems that it's true;
  Am       C   G 
you were deceiving.


Chorus:

  D            Am 
Light outta darkness,
  C            G
dreams outta dust.
  Em       G
Lucky in life
  Am       G
if not in love.

(guitar 1)  
         D         G           C   G     C-G-D-Dsus-D9
Well, I can't be part of that tragedy
   D      G              C      G        C-G-D-Dsus-D9
knowing that you're so wrong for me.     

(guitar 2)
      D      G      C      G        C     G     D    Dsus    D9
|------------------------------|------------------------10--------|
|--13-12-10--------------------|--13-12-10-----10-12-13-----------|
|----------12-11-12-11-9-------|------------12--------------------|
|------------------------12----|----------------------------------|
|------------------------------|----------------------------------|
|------------------------------|----------------------------------|


Mid section:

      D      G      C      G        C     G     D    Dsus    D9   
|------------------------------|---------------------10-12-14-----|
|--13-12-10--------------------|--13-12-10-----10-12--------------|
|----------12-11-9-12-11-9-----|-------------12-------------------|
|-------------------------12---|----------------------------------|
|------------------------------|----------------------------------|
|------------------------------|----------------------------------|

      D      G      C      G        C     G     D    Dsus    D9   (guitar 1)
|------------------------------|---------------------10-12-14-----|---10-12-14----14-15-17|
|--13-12-10--------------------|--13-12-10-----10-12--------------|-----------------------|
|----------12-11-9-12-11-9-----|-------------12-------------------|-----------------------|
|-------------------------12---|----------------------------------|-----------------------|
|------------------------------|----------------------------------|-----------------------|
|------------------------------|----------------------------------|-----------------------|
                                                                  (guitar 2) 
                                                                  |--2s3---5----5b7b8-----|
                                                                  |--3-----3----3---------|
                                                                  |--2-----2----2---------|
                                                                  |--0-----0----0---------|
                                                                  |-----------------------|
                                                                  |-----------------------|

1st solo:

|---------------|------10s12-12-12-12-10-------------------------------------------------|
|---------11s12-|------------------------------------------------------------------------|
|--9-11-12------|------------------------------------------------------------------------|
|---------------|------------------------------------------------------------------------|
|---------------|------------------------------------------------------------------------|
|---------------|------------------------------------------------------------------------|

|---------------|------10s12-12-12-12h10------12s14-14-14-14s15-12-----12h14s15----------|
|---------11s12-|------------------------------------------------------------------15----|
|--9-11-12------|------------------------------------------------------------------------|
|---------------|------------------------------------------------------------------------|
|---------------|------------------------------------------------------------------------|
|---------------|------------------------------------------------------------------------|

|---------------|---------------------------|--------------------------------------------|
|---------11s12-|------13-12-10-------------|--------------------------------------------|
|--9-11-12------|--------------12-9-12-12-12|--------------------------------------------|
|---------------|---------------------------|--------------------------------------------|
|---------------|---------------------------|--------------------------------------------|
|---------------|---------------------------|--------------------------------------------|


Chorus:

  D            Am 
Light outta darkness,
  C            G
dreams outta dust.   
   D            Am 
Light outta darkness,
  C            G
dreams outta dust. 

(guitar 1)  
         D         G           C   G     C-G-D-Dsus-D9
Well, I can't be part of that tragedy
   D      G              C      G        C-G-D-Dsus-D9
knowing that you're so wrong for me.     

(guitar 2)
      D      G      C      G        C     G     D    Dsus    D9
|------------------------------|------------------------10--------|
|--13-12-10--------------------|--13-12-10-----10-12-13-----------|
|----------12-11-12-11-9-------|------------12--------------------|
|------------------------12----|----------------------------------|
|------------------------------|----------------------------------|
|------------------------------|----------------------------------|


Mid section:

      D      G      C      G        C     G     D    Dsus    D9   
|------------------------------|---------------------10-12-14-----|
|--13-12-10--------------------|--13-12-10-----10-12--------------|
|----------12-11-9-12-11-9-----|-------------12-------------------|
|-------------------------12---|----------------------------------|
|------------------------------|----------------------------------|
|------------------------------|----------------------------------|

      D      G      C      G        C     G     D    Dsus    D9   (guitar 1)
|------------------------------|---------------------10-12-14-----|---10-12-14----14-15-17|
|--13-12-10--------------------|--13-12-10-----10-12--------------|-----------------------|
|----------12-11-9-12-11-9-----|-------------12-------------------|-----------------------|
|-------------------------12---|----------------------------------|-----------------------|
|------------------------------|----------------------------------|-----------------------|
|------------------------------|----------------------------------|-----------------------|
                                                                  (guitar 2) 
                                                                  |--2s3---5----5b7b8-----|
                                                                  |--3-----3----3---------| 
                                                                  |--2-----2----2---------|
                                                                  |--0-----0----0---------|
                                                                  |-----------------------|
                                                                  |-----------------------|


2nd solo


  D            Am 
Light outta darkness,
  C            G
dreams outta dust.        x4

Добавлено: 21.07.2015
Вам также может быть интересно:
Другие материалы по этой песне:
  • Аккорды и текст

Страница создана 21.07.2015
http://primanota.ru/wishbone-ash/dreams-outta-dust-chords.htm
Привет, Гость.
Предлагаем пройти революционный курс по гитаре.
Подарок от PrimaNota.Ru, забирай!