PrimaNota.ru - самый крупный в мире бесплатный архив песенных текстов, аккордов, табулатур и нот


Wire - Practice Makes Perfect - текст песни, таба, видео

Регистрация Запомнить меня
Войти через:  Facebook Google Twitter Vk Yandex Mail.ru

Wire - Practice Makes Perfect - текст песни, таба, видео

Печатать
Просмотров: 99
Авторы: Colin Newman, Bruce Gilbert

song: "Practice Makes Perfect"
artist: WIRE
album: Chairs Missing

standard tuning

Guitar I = Colin Newman
Guitar II = Bruce Gilbert


after bass intro
Verse @ 0:13
Guitar I
e|-3---3---3-3-3---3---3---3-3-3---3---3---3-3-3---3---3---3-3-3--|
B|-4---4---4-4-4---4---4---4-4-4---4---4---4-4-4---4---4---4-4-4--|
G|-5---5---5-5-5---5---5---5-5-5---5---5---5-5-5---5---5---5-5-5--|
D|-5---5---5-5-5---5---5---5-5-5---5---5---5-5-5---5---5---5-5-5--|
A|-3---3---3-3-3---3---3---3-3-3---3---3---3-3-3---3---3---3-3-3--|
E|----------------------------------------------------------------|

Guitar II @ 0:22
e|-------3---------------3---3-----------3---------------3---3----|
B|-----4---------------4-------4-------4---------------4-------4--|
G|---5---------------5-----------5---5---------------5-----------5|
D|-5---------------5---------------5---------------5--------------|
A|----------------------------------------------------------------|
E|----------------------------------------------------------------|


Guitar I
   Practice makes perfect...
e|-3---3---3-3-3---3---3---3-3-3---3---3---3-3-3--|
B|-4---4---4-4-4---4---4---4-4-4---4---4---4-4-4--|
G|-5---5---5-5-5---5---5---5-5-5---5---5---5-5-5--|
D|-5---5---5-5-5---5---5---5-5-5---5---5---5-5-5--|
A|-3---3---3-3-3---3---3---3-3-3---3---3---3-3-3--|
E|------------------------------------------------|


Guitar I & II change together @ 0:38
   do it.
e|-2---2---2-2-2---2---2---2-2-2--|
B|-2---2---2-2-2---2---2---2-2-2--|
G|-3---3---3-3-3---3---3---3-3-3--|
D|-4---4---4-4-4---4---4---4-4-4--|
A|-4---4---4-4-4---4---4---4-4-4--|
E|-2---2---2-2-2---2---2---2-2-2--|


   Please dress in your best things...
e|-3---3---3-3-3---3---3---3-3-3---3---3---3-3-3--|
B|-4---4---4-4-4---4---4---4-4-4---4---4---4-4-4--|
G|-5---5---5-5-5---5---5---5-5-5---5---5---5-5-5--|
D|-5---5---5-5-5---5---5---5-5-5---5---5---5-5-5--|
A|-3---3---3-3-3---3---3---3-3-3---3---3---3-3-3--|
E|------------------------------------------------|


guitars drop out while bass plays F# then riffs
Sara Bernard's hand...

guitars join in @ :58
e|-2-2-2-2-2-2-2-2-2-2-2-2-2-2-2-2-2-2-2-2-2-2-2-2-2-2-2-2-2-2-|
B|-2-2-2-2-2-2-2-2-2-2-2-2-2-2-2-2-2-2-2-2-2-2-2-2-2-2-2-2-2-2-|
G|-3-3-3-3-3-3-3-3-3-3-3-3-3-3-3-3-3-3-3-3-3-3-3-3-3-3-3-3-3-3-|
D|-4-4-4-4-4-4-4-4-4-4-4-4-4-4-4-4-4-4-4-4-4-4-4-4-4-4-4-4-4-4-|
A|-4-4-4-4-4-4-4-4-4-4-4-4-4-4-4-4-4-4-4-4-4-4-4-4-4-4-4-4-4-4-|
E|-2-2-2-2-2-2-2-2-2-2-2-2-2-2-2-2-2-2-2-2-2-2-2-2-2-2-2-2-2-2-|


Verse @ 1:06
Guitar I
e|-3---3---3-3-3---3---3---3-3-3---3---3---3-3-3---3---3---3-3-3--|
B|-4---4---4-4-4---4---4---4-4-4---4---4---4-4-4---4---4---4-4-4--|
G|-5---5---5-5-5---5---5---5-5-5---5---5---5-5-5---5---5---5-5-5--|
D|-5---5---5-5-5---5---5---5-5-5---5---5---5-5-5---5---5---5-5-5--|
A|-3---3---3-3-3---3---3---3-3-3---3---3---3-3-3---3---3---3-3-3--|
E|----------------------------------------------------------------|


Guitar I @ 1:16
   Practice makes perfect...
e|-3---3---3---3-3-3---3---3---3---3---3-3-3--|
B|-4---4---4---4-4-4---4---4---4---4---4-4-4--|
G|-5---5---5---5-5-5---5---5---5---5---5-5-5--|
D|-5---5---5---5-5-5---5---5---5---5---5-5-5--|
A|-3---3---3---3-3-3---3---3---3---3---3-3-3--|
E|--------------------------------------------|

Guitar I & II change together @ 1:22
   love.
e|-2---2---2-2-2---2---2---2-2-2--|
B|-2---2---2-2-2---2---2---2-2-2--|
G|-3---3---3-3-3---3---3---3-3-3--|
D|-4---4---4-4-4---4---4---4-4-4--|
A|-4---4---4-4-4---4---4---4-4-4--|
E|-2---2---2-2-2---2---2---2-2-2--|


Verse @ 1:27
Guitar I
   Please dress in your best things and don't make a fuss...
e|-3---3---3-3-3---3---3---3-3-3---3---3---3-3-3---3---3---3-3-3--|
B|-4---4---4-4-4---4---4---4-4-4---4---4---4-4-4---4---4---4-4-4--|
G|-5---5---5-5-5---5---5---5-5-5---5---5---5-5-5---5---5---5-5-5--|
D|-5---5---5-5-5---5---5---5-5-5---5---5---5-5-5---5---5---5-5-5--|
A|-3---3---3-3-3---3---3---3-3-3---3---3---3-3-3---3---3---3-3-3--|
E|----------------------------------------------------------------|


Verse @ 1:36
Guitar I
                   Waiting for us
e|-3---3---3-3-3---3---3---3-3-3---3---3---3---3---0-0-0-0-0-0-0-0-0-0-0-0-0-0-0-0-|
B|-4---4---4-4-4---4---4---4-4-4---4---4---4---4---4-4-4-4-4-4-4-4-4-4-4-4-4-4-4-4-|
G|-5---5---5-5-5---5---5---5-5-5---5---5---5---5---5-5-5-5-5-5-5-5-5-5-5-5-5-5-5-5-|
D|-5---5---5-5-5---5---5---5-5-5---5---5---5---5-----------------------------------|
A|-3---3---3-3-3---3---3---3-3-3---3---3---3---3-----------------------------------|
E|---------------------------------------------------------------------------------|


Outro @ 1:47
   waiting for us
e|-3---3---3-3-3---3---3---3-3-3---0-0-0-0-0-0-0-0-0-0-0-0-0-0-0-0-||
B|-4---4---4-4-4---4---4---4-4-4---4-4-4-4-4-4-4-4-4-4-4-4-4-4-4-4-||
G|-5---5---5-5-5---5---5---5-5-5---5-5-5-5-5-5-5-5-5-5-5-5-5-5-5-5-||
D|-5---5---5-5-5---5---5---5-5-5-----------------------------------||
A|-3---3---3-3-3---3---3---3-3-3-----------------------------------||
E|-----------------------------------------------------------------||


Guitar I figure @ 2:59
  (this is just the basic notes, feel free to improv)
e|------------------------------------------------7---------------||
B|-8-----------10-8-7----------8-7-8---------10-8------------10-8-||
G|-0----------------0--------------0------------------------------||
D|----------------------------------------------------------------||
A|----------------------------------------------------------------||
E|----------------------------------------------------------------||


That's it.

Please comment with any questions, changes, or requests.

Cheers!
-Bennyshambles78-

Добавлено: 12.10.2013
Другие материалы по этой песне:

Страница создана 12.10.2013
http://primanota.ru/wire/practice-makes-perfect-chords.htm
Привет, Гость.
Предлагаем пройти революционный курс по гитаре.
Подарок от PrimaNota.Ru, забирай!