PrimaNota.ru - самый крупный в мире бесплатный архив песенных текстов, аккордов, табулатур и нот


Wire - Once Is Enough - таба, видео

Регистрация Запомнить меня
Войти через:  Facebook Google Twitter Vk Yandex Mail.ru

Wire - Once Is Enough - таба, видео

Печатать
Просмотров: 70
Авторы музыки: Colin Newman
Авторы текста: Colin Newman
-------------------------------------------------------------------------------
                             Once is enough - Wire
-------------------------------------------------------------------------------
Tabbed by: R Cook
E-mail:

Tuning: Standard

e|---------------------------------------------------------------------------|
B|---------------------------------------------------------------------------|
G|---------------------------------------------------------------------------|
D|--------------5--7---------------------------------------------------------|
A|--------5--7----------pause 4 beats then repeat twice more-----------------|
E|--5-7----------------------------------------------------------------------|


e|---------------------------------------------------------------------------|
B|---------------------------------------------------------------------------|
G|--------5-7---------5-7--7-7-7---7-7-7-----------5-7--------5-7--7-7-7-----|
D|----5-7---------5-7------------5-------5-----5-7---------5-7----------5----|
A|5-7---------5-7--------------------------5-7---------5-7-------------------|
E|---------------------------------------------------------------------------|

                            Its sinister  I'd attempt a casual structure

e|--------------------------1-------------2----------------------------------|
B|--------------------------1-------------2----------------------------------|
G|-7-7-7---7-7-7---7-7-7----2-------------3----------------------------------|
D|-------5-------5-------5--3-------------4----------------------------------|
A|--------------------------3-------------4----------------------------------|
E|--------------------------0-------------2----------------------------------|

    Each minister   is just a drop compared

e|--1---------------2--------------------------------------------------------|
B|--1---------------2--------------------------------------------------------|
G|--2---------------3--------------------------------------------------------|
D|--3---------------4--------------------------------------------------------|
A|--3---------------4--------------------------------------------------------|
E|--0---------------2--------------------------------------------------------|

    Deciding each device if you don't think twice

e|---------------------------------------------------------------------------|
B|---------------------------------------------------------------------------|
G|-----------------5-7-----------------5-----7-------------------------------|
D|-------5----7-----------------5---7----------------------------------------|
A|--5-7------------------5--7------------------------------------------------|
E|---------------------------------------------------------------------------|

    Once is enough once is enough

e|---------------------------------------------------------------------------|
B|---------------------------------------------------------------------------|
G|---7-7-7---------7-7-7-----------------------------------------------------|
D|------------5------------5-------------------------------------------------|
A|---------------------------------------------------------------------------|
E|---------------------------------------------------------------------------|




    Preparing its demise is something you'll devise
e|---------------------------------------------------------------------------|
B|---------------------------------------------------------------------------|
G|-----------------5-7-----------------5-----7-------------------------------|
D|-------5----7-----------------5---7----------------------------------------|
A|--5-7------------------5--7------------------------------------------------|
E|---------------------------------------------------------------------------|

   Once is enough 
e|---------------------------------------------------------------------------|
B|---------------------------------------------------------------------------|
G|---7-7-7---------7-7-7-----7-7-7---7-7-7-----------------------------------|
D|------------5------------5-------5-------5---------------------------------|
A|---------------------------------------------------------------------------|
E|---------------------------------------------------------------------------|




Добавлено: 26.10.2013
Другие материалы по этой песне:
  • Аккорды и текст

Страница создана 26.10.2013
http://primanota.ru/wire/once-is-enough-chords.htm
Привет, Гость.
Предлагаем пройти революционный курс по гитаре.
Подарок от PrimaNota.Ru, забирай!