PrimaNota.ru - самый крупный в мире бесплатный архив песенных текстов, аккордов, табулатур и нот


Wire - French Film Blurred - таба, видео

Регистрация Запомнить меня
Войти через:  Facebook Google Twitter Vk Yandex Mail.ru

Wire - French Film Blurred - таба, видео

Печатать
Просмотров: 100
Авторы: Colin Newman, Graham Lewis

song: "French Film Blurred"
artist: WIRE
album: Chairs Missing

standard tuning

Intro

e|-2-3------------|
B|-----2-3-------2|
G|---------2-3-4--|
D|----------------|
A|----------------|
E|----------------|

e|----------------------------------------------------------------|
B|-3-3-3-3-3-3-3-3------------------------------------------------|
G|-2-2-2-2-2-2-2-2------------------------------------------------|
D|-0-0-0-0-0-0-0-0-6-6-6-6-6-6-6-2-2-2-2-2-2-2-2-2-6-6-6-6-6-6-6-6|
A|-----------------6-6-6-6-6-6-6-2-2-2-2-2-2-2-2-2-6-6-6-6-6-6-6-6|
E|-----------------4-4-4-4-4-4-4-0-0-0-0-0-0-0-0-0-4-4-4-4-4-4-4-4|


e|----------------------------------------------------------------|
B|----------------------------------------------------------------|
G|----------------------------------------------------------------|
D|-5-5-5-5-5-5-5-5-5-5-5-5-5-5-5-5-5-5-5-5-5-5-5-5-5-5-5-5-5-5-5-5|
A|-5-5-5-5-5-5-5-5-5-5-5-5-5-5-5-5-5-5-5-5-5-5-5-5-5-5-5-5-5-5-5-5|
E|-3-3-3-3-3-3-3-3-3-3-3-3-3-3-3-3-3-3-3-3-3-3-3-3-3-3-3-3-3-3-3-3|


Verse @ 0:20
 I don't understand your plea to live...
e|----------------------------------------------------------------|
B|-3-3-3-3-3-3-3-3------------------------------------------------|
G|-2-2-2-2-2-2-2-2------------------------------------------------|
D|-0-0-0-0-0-0-0-0-6-6-6-6-6-6-6-2-2-2-2-2-2-2-2-2-6-6-6-6-6-6-6-6|
A|-----------------6-6-6-6-6-6-6-2-2-2-2-2-2-2-2-2-6-6-6-6-6-6-6-6|
E|-----------------4-4-4-4-4-4-4-0-0-0-0-0-0-0-0-0-4-4-4-4-4-4-4-4|

           However, as backing away...
e|----------------------------------------------------------------|
B|----------------------------------------------------------------|
G|----------------------------------------------------------------|
D|-5-5-5-5-5-5-5-5-5-5-5-5-5-5-5-5-5-5-5-5-5-5-5-5-5-5-5-5-5-5-5-5|
A|-5-5-5-5-5-5-5-5-5-5-5-5-5-5-5-5-5-5-5-5-5-5-5-5-5-5-5-5-5-5-5-5|
E|-3-3-3-3-3-3-3-3-3-3-3-3-3-3-3-3-3-3-3-3-3-3-3-3-3-3-3-3-3-3-3-3|


It's not quite the way to say goodbye...
e|----------------------------------------------------------------|
B|-3-3-3-3-3-3-3-3------------------------------------------------|
G|-2-2-2-2-2-2-2-2------------------------------------------------|
D|-0-0-0-0-0-0-0-0-6-6-6-6-6-6-6-2-2-2-2-2-2-2-2-2-6-6-6-6-6-6-6-6|
A|-----------------6-6-6-6-6-6-6-2-2-2-2-2-2-2-2-2-6-6-6-6-6-6-6-6|
E|-----------------4-4-4-4-4-4-4-0-0-0-0-0-0-0-0-0-4-4-4-4-4-4-4-4|

           So build you a concrete grave...
e|----------------------------------------------------------------|
B|----------------------------------------------------------------|
G|----------------------------------------------------------------|
D|-5-5-5-5-5-5-5-5-5-5-5-5-5-5-5-5-5-5-5-5-5-5-5-5-5-5-5-5-5-5-5-5|
A|-5-5-5-5-5-5-5-5-5-5-5-5-5-5-5-5-5-5-5-5-5-5-5-5-5-5-5-5-5-5-5-5|
E|-3-3-3-3-3-3-3-3-3-3-3-3-3-3-3-3-3-3-3-3-3-3-3-3-3-3-3-3-3-3-3-3|


Chorus @ 0:56
   Long scissors cut the ribbon...
e|-1---1-1-0---0-0-0---0-0-0---0-0-0---0-0-0-0-0-0-0-0-0-0-0-0-0-0-0-0-0-0|
B|-1---1-1-0---0-0-2---2-2-0---0-0-1---1-1-1-1-1-1-1-1-1-1-1-1-1-1-1-1-1-1|
G|-2---2-2-0---0-0-2---2-2-0---0-0-0---0-0-0-0-0-0-0-0-0-0-0-0-0-0-0-0-0-0|
D|-3---3-3-2---2-2-2---2-2-2---2-2-2---2-2-2-2-2-2-2-2-2-2-2-2-2-2-2-2-2-2|
A|-3---3-1-2---2-2-0---0-0-2---2-2-3---3-3-3-3-3-3-3-3-3-3-3-3-3-3-3-3-3-3|
E|-1---1-1-0---0-0---------0---0-0----------------------------------------|

the opening days...  
e|-1---1-1-1-1-1-1-0---0-0-0-0-0-0-0---0-0-0-0-0-0-0-0-0-0-0-0-0-0-0-0-0-0|
B|-1---1-1-1-1-1-1-0---0-0-0-0-0-0-2---2-2-2-2-2-2-2-2-2-2-2-2-2-2-2-2-2-2|
G|-2---2-2-2-2-2-2-0---0-0-0-0-0-0-2---2-2-2-2-2-2-2-2-2-2-2-2-2-2-2-2-2-2|
D|-3---3-3-3-3-3-3-2---2-2-2-2-2-2-2---2-2-2-2-2-2-2-2-2-2-2-2-2-2-2-2-2-2|
A|-3---3-3-3-3-3-3-2---2-2-2-2-2-2-0---0-0-0-0-0-0-0-0-0-0-0-0-0-0-0-0-0-0|
E|-1---1-1-1-1-1-1-0---0-0-0-0-0-0----------------------------------------|

I suppose that's the disadvantage...
e|-1---1-1-1-1-1-1-0---0-0-0-0-0-0-0---0-0-0-0-0-0-0-0-0-0-0-0-0-0-0-0-0-0|
B|-1---1-1-1-1-1-1-0---0-0-0-0-0-0-2---2-2-2-2-2-2-2-2-2-2-2-2-2-2-2-2-2-2|
G|-2---2-2-2-2-2-2-0---0-0-0-0-0-0-2---2-2-2-2-2-2-2-2-2-2-2-2-2-2-2-2-2-2|
D|-3---3-3-3-3-3-3-2---2-2-2-2-2-2-2---2-2-2-2-2-2-2-2-2-2-2-2-2-2-2-2-2-2|
A|-3---3-3-3-3-3-3-2---2-2-2-2-2-2-0---0-0-0-0-0-0-0-0-0-0-0-0-0-0-0-0-0-0|
E|-1---1-1-1-1-1-1-0---0-0-0-0-0-0----------------------------------------|


e|-0---0-0-0-0-0-0-0---------------2-3------------|
B|-2---2-2-2-2-2-2-2-------------------2-3-------2|
G|-2---2-2-2-2-2-2-2-----------------------2-3-4--|
D|-2---2-2-2-2-2-2-2------------------------------|
A|-0---0-0-0-0-0-0-0------------------------------|
E|------------------------------------------------|


Outro @ 1:30
         A second language...
e|----------------------------------------------------------------|
B|-3-3-3-3-3-3-3-3------------------------------------------------|
G|-2-2-2-2-2-2-2-2------------------------------------------------|
D|-0-0-0-0-0-0-0-0-6-6-6-6-6-6-6-2-2-2-2-2-2-2-2-2-6-6-6-6-6-6-6-6|
A|-----------------6-6-6-6-6-6-6-2-2-2-2-2-2-2-2-2-6-6-6-6-6-6-6-6|
E|-----------------4-4-4-4-4-4-4-0-0-0-0-0-0-0-0-0-4-4-4-4-4-4-4-4|


e|----------------------------------------------------------------|
B|----------------------------------------------------------------|
G|----------------------------------------------------------------|
D|-5-5-5-5-5-5-5-5-5-5-5-5-5-5-5-5-5-5-5-5-5-5-5-5-5-5-5-5-5-5-5-5|
A|-5-5-5-5-5-5-5-5-5-5-5-5-5-5-5-5-5-5-5-5-5-5-5-5-5-5-5-5-5-5-5-5|
E|-3-3-3-3-3-3-3-3-3-3-3-3-3-3-3-3-3-3-3-3-3-3-3-3-3-3-3-3-3-3-3-3|


         A second language...
e|----------------------------------------------------------------|
B|-3-3-3-3-3-3-3-3------------------------------------------------|
G|-2-2-2-2-2-2-2-2------------------------------------------------|
D|-0-0-0-0-0-0-0-0-6-6-6-6-6-6-6-2-2-2-2-2-2-2-2-2-6-6-6-6-6-6-6-6|
A|-----------------6-6-6-6-6-6-6-2-2-2-2-2-2-2-2-2-6-6-6-6-6-6-6-6|
E|-----------------4-4-4-4-4-4-4-0-0-0-0-0-0-0-0-0-4-4-4-4-4-4-4-4|


e|----------------------------------------------------------------|
B|----------------------------------------------------------------|
G|----------------------------------------------------------------|
D|-5-5-5-5-5-5-5-5-5-5-5-5-5-5-5-5-5-5-5-5-5-5-5-5-5-5-5-5-5-5-5-5|
A|-5-5-5-5-5-5-5-5-5-5-5-5-5-5-5-5-5-5-5-5-5-5-5-5-5-5-5-5-5-5-5-5|
E|-3-3-3-3-3-3-3-3-3-3-3-3-3-3-3-3-3-3-3-3-3-3-3-3-3-3-3-3-3-3-3-3|


Guitar II lead figure @ 1:56
e|-----------3-5-----------3-5---------------3-5-----------3-5----||
B|-0-3-5-5---------0-3-5-5-----0-3-0-3-5-5---------0-3-5-5-----0-3||
G|----------------------------------------------------------------||
D|----------------------------------------------------------------|| play this all
A|----------------------------------------------------------------|| the way until
E|----------------------------------------------------------------|| the end and improv


         A second language...
e|----------------------------------------------------------------|
B|-3-3-3-3-3-3-3-3------------------------------------------------|
G|-2-2-2-2-2-2-2-2------------------------------------------------|
D|-0-0-0-0-0-0-0-0-6-6-6-6-6-6-6-2-2-2-2-2-2-2-2-2-6-6-6-6-6-6-6-6|
A|-----------------6-6-6-6-6-6-6-2-2-2-2-2-2-2-2-2-6-6-6-6-6-6-6-6|
E|-----------------4-4-4-4-4-4-4-0-0-0-0-0-0-0-0-0-4-4-4-4-4-4-4-4|


e|----------------------------------------------------------------|
B|----------------------------------------------------------------|
G|----------------------------------------------------------------|
D|-5-5-5-5-5-5-5-5-5-5-5-5-5-5-5-5-5-5-5-5-5-5-5-5-5-5-5-5-5-5-5-5|
A|-5-5-5-5-5-5-5-5-5-5-5-5-5-5-5-5-5-5-5-5-5-5-5-5-5-5-5-5-5-5-5-5|
E|-3-3-3-3-3-3-3-3-3-3-3-3-3-3-3-3-3-3-3-3-3-3-3-3-3-3-3-3-3-3-3-3|


         A second language...
e|----------------------------------------------------------------|
B|-3-3-3-3-3-3-3-3------------------------------------------------|
G|-2-2-2-2-2-2-2-2------------------------------------------------|
D|-0-0-0-0-0-0-0-0-6-6-6-6-6-6-6-2-2-2-2-2-2-2-2-2-6-6-6-6-6-6-6-6|
A|-----------------6-6-6-6-6-6-6-2-2-2-2-2-2-2-2-2-6-6-6-6-6-6-6-6|
E|-----------------4-4-4-4-4-4-4-0-0-0-0-0-0-0-0-0-4-4-4-4-4-4-4-4|


e|----------------------------------------------------------------|
B|----------------------------------------------------------------|
G|----------------------------------------------------------------|
D|-5-5-5-5-5-5-5-5-5-5-5-5-5-5-5-5-5-5-5-5-5-5-5-5-5-5-5-5-5-5-5-5|
A|-5-5-5-5-5-5-5-5-5-5-5-5-5-5-5-5-5-5-5-5-5-5-5-5-5-5-5-5-5-5-5-5|
E|-3-3-3-3-3-3-3-3-3-3-3-3-3-3-3-3-3-3-3-3-3-3-3-3-3-3-3-3-3-3-3-3|


         A second language...
e|----------------------------------------------------------------|
B|-3-3-3-3-3-3-3-3------------------------------------------------|
G|-2-2-2-2-2-2-2-2------------------------------------------------|
D|-0-0-0-0-0-0-0-0-6-6-6-6-6-6-6-2-2-2-2-2-2-2-2-2-6-6-6-6-6-6-6-6|
A|-----------------6-6-6-6-6-6-6-2-2-2-2-2-2-2-2-2-6-6-6-6-6-6-6-6|
E|-----------------4-4-4-4-4-4-4-0-0-0-0-0-0-0-0-0-4-4-4-4-4-4-4-4|


e|----------------------------------------------------------------|
B|----------------------------------------------------------------|
G|----------------------------------------------------------------|
D|-5-5-5----------------------------------------------------------|
A|-5-5-5----------------------------------------------------------|
E|-3-3-3----------------------------------------------------------|


That's it.

Please leave comments regarding questions, changes, or requests.

Cheers!
-Bennyshambles78-
Добавлено: 22.10.2013
Другие материалы по этой песне:
  • Аккорды и текст

Страница создана 22.10.2013
http://primanota.ru/wire/french-film-blurred-chords.htm
Привет, Гость.
Предлагаем пройти революционный курс по гитаре.
Подарок от PrimaNota.Ru, забирай!