PrimaNota.ru - самый крупный в мире бесплатный архив песенных текстов, аккордов, табулатур и нот


Wire - Champs - аккорды и текст, видео

Регистрация Запомнить меня
Войти через:  Facebook Google Twitter Vk Yandex Mail.ru

Wire - Champs - аккорды и текст, видео

Печатать
Просмотров: 57
Авторы: Robert Gotobed, Colin Newman, Bruce Gilbert, Graham Lewis

Champs
Wire
Song: Champs
Band: Wire
Album: Pink Flag
Year: 1977
Tabber: beranger80@hotmail.com



Intro (0:00)

   Bm                     E
e---------------------------------------------|
b---------------------------------------------|
g--4--4-4--4-4--4-7-4-7--------------------7--|
d--4--4-4--4-4--4-7-4-7--2--2-2--2-2--2-2--7--| x2
a--2--2-2--2-2--2-5-2-5--2--2-2--2-2--2-2--5--|
e------------------------0--0-0--0-0--0-0-----|



Verse (0:12)

Bm                                     E
The race of champions, the pace the pace
Bm                              E
The speed the need, the need to seed
Bm              E
The chance to die



Chorus (0:29)

Bm                       E
Another dead don't cry, another dead don't cry
A                       G
You've still got speed, you'll maybe bleed
F#
But that's next time



Postchorus (0:46)

   Bm                     E
e---------------------------------------------|
b---------------------------------------------|
g--4--4-4--4-4--4-7-4-7--------------------7--|
d--4--4-4--4-4--4-7-4-7--2--2-2--2-2--2-2--7--| x2
a--2--2-2--2-2--2-5-2-5--2--2-2--2-2--2-2--5--|
e------------------------0--0-0--0-0--0-0-----|



Verse (0:57)

Bm                                     E
More speed than before, less time than before
Bm                              E
You're rich not poor, what are you doing it for?
Bm                E
Want more, want more



Chorus (1:14)

Bm                       E
Another dead don't cry, another dead don't cry
A                       G
Indeed it's speed, to feed from speed
F#
Doing it all the time



Outro (1:31)

   Bm                     E
e---------------------------------------------|
b---------------------------------------------|
g--4--4-4--4-4--4-7-4-7--------------------7--|
d--4--4-4--4-4--4-7-4-7--2--2-2--2-2--2-2--7--|
a--2--2-2--2-2--2-5-2-5--2--2-2--2-2--2-2--5--|
e------------------------0--0-0--0-0--0-0-----|

   Bm              D  A   E
e-----------------------------|
b-----------------------------|
g--4--4-4--4-4--4--7--2-------|
d--4--4-4--4-4--4--7--2--2-2--|
a--2--2-2--2-2--2--5--0--2-2--|
e------------------------0-0--|
Добавлено: 11.09.2014
Другие материалы по этой песне:
  • Аккорды и текст

Страница создана 11.09.2014
http://primanota.ru/wire/champs-chords.htm
Привет, Гость.
Предлагаем пройти революционный курс по гитаре.
Подарок от PrimaNota.Ru, забирай!