PrimaNota.ru - самый крупный в мире бесплатный архив песенных текстов, аккордов, табулатур и нот


Wir - Nicht Euer Drehbuch - таба, видео

Регистрация Запомнить меня
Войти через:  Facebook Google Twitter Vk Yandex Mail.ru

Wir - Nicht Euer Drehbuch - таба, видео

Печатать
Просмотров: 127
WIR - Nicht euer Drehbuch

Kapo auf 2. Bund

Akkorde

C#m7	x46600
C#m7/A 	x06600
Hsus4 	x24400

Anfang

e|--0-0-0-0-0-0-0-0-0-0-0-0-0-0-0-0-0-0-0-0-0-0-0-0-0-0-0-0-0-0-0-0----------|x
h|--0-0-0-0-0-0-0-0-0-0-0-0-0-0-0-0-0-0-0-0-0-0-0-0-0-0-0-0-0-0-0-0----------|x
g|--6-6-6-6-6-6-6-6-6-6-6-6-6-6-6-6-6-6-6-6-6-6-6-6-6-6-6-6-6-6-6-6----------|x
d|--6-6-6-6-6-6-6-6-6-6-6-6-6-6-6-6-6-6-6-6-6-6-6-6-6-6-6-6-6-6-6-6----------|x
A|--4-4-4-4-4-4-4-0-0-0-0-0-0-0-0-0-4-4-4-4-4-4-4-0-0-0-0-0-0-0-0-0----------|x
E|---------------------------------------------------------------------------|x

Strophe 1

C#m7		   C#m7/A	     C#m7	C#m7/A
Wärs nicht oftmals besser? Ich würde einfach nur verliern.
     C#m7	   C#m7/A	                  Hsus4
Mein altes ich zertrümmern und deine Tränen absorbiern.
      C#m7	        C#m7/A  C#m7		    C#m7/A
Unsre Villa im Garten nebenan.  Geld ist nicht das, was ich brauch.
   Hsus4
Es reicht an genügend Imagination. Du und Madsen warn die Perfektion.


Chorus

C#m7	       C#m7/A
Alle glücklich außer mir?
C#m7	     C#m7/A
Oder besser inszeniert?
C#m7		    C#m7/A
Tränen verliern ist leichter im Regen.
Hsus4
Hab ich mich im Akt geirrt?


Strophe 2

    C#m7              C#m7/A     C#m7	         C#m7/A
Ich seh die Kinder im Regen. Sie sitzen, lachen, spielen, reden.
    C#m7		C#m7/A  C#m7		     C#m7/A
Die schwarzen Haare der Mutter. Ist es das, was mich fasziniert?
     C#m7	C#m7/A		C#m7	           C#m7/A
Ich träum von ihr, 	doch ich kenn sie nicht, erkenn sie nicht.
Hsus4		   C#m7
Nicht, nicht,  nicht wieder.

Chorus

Mittelteil
e|---------0-------------0---------------------------------------------------|x
h|-----0-------0-----0-------0-----------------------------------------------|x
g|-------6---6---6-----6---6---6---------------------------------------------|x
d|---------------------------------------------------------------------------|x
A|---4-------------0---------------------------------------------------------|x
E|---------------------------------------------------------------------------|x

Ich bin mit meinen Gedanken ständig in meiner eigenen Welt.
Ein Gruß von schwarzen Rosen. Unverkennbar
Ich binde meine Gedanken ständig an euer Antlitz, euern Umriss,
der Schatten auf mich wirft.
Ich hab Angst wenn der Tag kommt und die Nach geht.
Ich leb nicht nach eurem Drehbuch. Ich leb nicht nach eurem Drehbuch.

e|---------0-------------0---------------------------------------------------|x
h|-----4-------4-----4-------4-----------------------------------------------|x
g|-------4---4---4-----4---4---4---------------------------------------------|x
d|---------------------------------------------------------------------------|x
A|---0-------------2---------------------------------------------------------|x
E|---------------------------------------------------------------------------|x

Das Nichtstun macht mich krank. Sehr krank sogar und die Unzufriedenheit noch mehr.

e|---0-0-0-0-0-0-0-0-0-0-0-0-0-0-0-0-0-0-0-0-0-0-0-0-0-0-0-0-0-0-0-0---------|x
h|---4-4-4-4-4-4-4-5-5-5-5-5-5-5-5-5-4-4-4-4-4-4-4-5-5-5-5-5-5-5-5-5---------|x
g|---4-4-4-4-4-4-4-4-4-4-4-4-4-4-4-4-4-4-4-4-4-4-4-4-4-4-4-4-4-4-4-4---------|x
d|---2-2-2-2-2-2-2-2-2-2-2-2-2-2-2-2-2-2-2-2-2-2-2-2-2-2-2-2-2-2-2-2---------|x
A|---0-0-0-0-0-0-0-0-0-0-0-0-0-0-0-0-0-0-0-0-0-0-0-0-0-0-0-0-0-0-0-0---------|x
E|---------------------------------------------------------------------------|x
Wir wollen immer mehr. Immer mehr. Wir wollen immer mehr. Immer mehr.

Chorus

C#m7		   C#m7/A
Sind wir glücklich, oder nicht?
C#m7		   C#m7/A
Sind wir wichtig, oder nicht?
C#m7		   C#m7/A
Sind wir künstlich, oder nicht?
Hsus4
Ich weiß nicht, ich weiß es nicht.

Schluss

e|-------------------------------------------------------------------------------|x
h|-------------------------------------------------------------------------------|x
g|-666-666-6666--666-666-6666---111111-111111-11111111--111111-111111-11111111---|x
d|-666-666-6666--666-666-6666---111111-111111-11111111--111111-111111-11111111---|x
A|-444-444-4444--444-444-4444---9-9-9--9--9---9-9-9-9---9-9-9--9-9-9--9-9-9-9----|x
E|-------------------------------------------------------------------------------|x

e|-------------------------------------------------------------------------|x
h|-------------------------------------------------------------------------|x
g|-666-666-6666-666-666-6666---444-444-4444--444-444-4444------------------|x
d|-666-666-6666-666-666-6666---444-444-4444--444-444-4444------------------|x
A|-444-444-4444—444-444-4444---222-222-2222--222-222-2222------------------|x
E|-------------------------------------------------------------------------|x

e|--------------------------------------------------------------------------|x
h|--------------------------------------------------------------------------|x
g|-6-6-6-6---6-6-6-6---6-6-6-6-6-6-6-6-6-6----------------------------------|x
d|-6-6-6-6---6-6-6-6---6-6-6-6-6-6-6-6-6-6----------------------------------|x
A|-4-4-4-4---4-4-4-4---4-4-4-4-4-4-4-4-4-4----------------------------------|x
E|--------------------------------------------------------------------------|x


Das sind die Originaltabs von Nicolas Kuri.
Ich hoffe, dass es euch weiterhilft. Wenn Fragen auftauchen gerne unter 
www.wirwirwir.de kontaktieren.
Добавлено: 17.04.2012
Другие материалы по этой песне:
  • Аккорды и текст

Страница создана 17.04.2012
http://primanota.ru/wir/nicht-euer-drehbuch-chords.htm
Привет, Гость.
Предлагаем пройти революционный курс по гитаре.
Подарок от PrimaNota.Ru, забирай!