PrimaNota.ru - самый крупный в мире бесплатный архив песенных текстов, аккордов, табулатур и нот


Wipers - The Lonely One - таба, видео

Регистрация Запомнить меня
Войти через:  Facebook Google Twitter Vk Yandex Mail.ru

Wipers - The Lonely One - таба, видео

Печатать
Просмотров: 150
Авторы: Greg Sage

hi Folks,  today this is my cover from Wipers : The Loneley One!

more informations? need that i edit a other cover?: machine_sk8@hotmail.fr

don't forget to rate me please!and comments!tell me what do you think

enjoy !

*=palm mute
/= slide
~= bend

Intro:

e|---------------------------------------|
b|7-------------7-7-7-7-9-9/7-5--5-7/9~--|
g|8-(let ring)--8-8-9-8-8-8/6-6--6-6/8~--|
d|9-------------9-9-9-9-9-9/7-7--7-7/9~--|
a|---------------------------------------|
e|---------------------------------------|

e|6-6-6-4--0-2-2-2-2-0--4---------4----------------|
b|4-4-4-4--0-0-0-0-0-0--4---------4---5-5-5-5/7----|
g|4-4-4-4--1-1-1-1-1-1--4---------4---6-6-6-6/8----|
d|4-4-4-4--2-2-2-2-2-2--6---------6---7-7-7-7/9----|
a|6-6-6-6--2-2-2-2-2-2--6----6----6----------------|
e|4-4-4-4--0-0-0-0-0-0--4----4----4----------------|

e|-------------------------|
b|7-7-7-7-9-9/7-5--5-7/9~--|
g|8-8-9-8-8-8/6-6--6-6/8~--|
d|9-9-9-9-9-9/7-7--7-7/9~--|
a|-------------------------|
e|-------------------------|

e|6-6-6-4--0-2-2-2-2-0--4---4-4-4-----4----------------|
b|4-4-4-4--0-0-0-0-0-0--4---4-4-4-----4---5-5-5-5/7----|
g|4-4-4-4--1-1-1-1-1-1--4---4-4-4-----4---6-6-6-6/8----|
d|4-4-4-4--2-2-2-2-2-2--6---6-6-6-----6---7-7-7-7/9----|
a|6-6-6-6--2-2-2-2-2-2--6---6-6-6-----6----------------|
e|4-4-4-4--0-0-0-0-0-0--4---4-4-4-----4----------------|


Verses :

e|-------------------------|
b|7-7-7-7-9-9/7-5--5-7/9~--|
g|8-8-9-8-8-8/6-6--6-6/8~--|
d|9-9-9-9-9-9/7-7--7-7/9~--|
a|-------------------------|
e|-------------------------|

For all the lonely ones,Who live life in the dreams

e|6-6-6-4--0-2-2-2-2-0--4---4-4-4-----4----------------|
b|4-4-4-4--0-0-0-0-0-0--4---4-4-4-----4---5-5-5-5/7----|
g|4-4-4-4--1-1-1-1-1-1--4---4-4-4-----4---6-6-6-6/8----|
d|4-4-4-4--2-2-2-2-2-2--6---6-6-6-----6---7-7-7-7/9----|
a|6-6-6-6--2-2-2-2-2-2--6---6-6-6-----6----------------|
e|4-4-4-4--0-0-0-0-0-0--4---4-4-4-----4----------------|

It's so cold and lonely outside,So it seems...

e|-------------------------|
b|7-7-7-7-9-9/7-5--5-7/9---|
g|8-8-9-8-8-8/6-6--6-6/8---|
d|9-9-9-9-9-9/7-7--7-7/9---|
a|-------------------------|
e|-------------------------|

So you keep on searching,Anyway

e|6-6-6-4--0-2-2-2-2-0--4---4-4-4-----4----------------|
b|4-4-4-4--0-0-0-0-0-0--4---4-4-4-----4---5-5-5-5/7----|
g|4-4-4-4--1-1-1-1-1-1--4---4-4-4-----4---6-6-6-6/8----|
d|4-4-4-4--2-2-2-2-2-2--6---6-6-6-----6---7-7-7-7/9----|
a|6-6-6-6--2-2-2-2-2-2--6---6-6-6-----6----------------|
e|4-4-4-4--0-0-0-0-0-0--4---4-4-4-----4----------------|

Maybe you'll find someone tomorrow,'Cause you haven't today

e|-----------------------------------------------------|
b|----------------------------9-9/11--9/11~--9-9~------|
g|----------------------------8-8/10--8/10~--8-8~------|
d|----4-6-4---------4-4/6-6~--6-6/8---6/8~---6-6~------|
a|2-6-------0--0-2/4-----------------------------------|
e|-----------------------------------------------------|


e|------------|
b|5-5-5-5/7---|
g|6-6-6-6/8---|
d|7-7-7-7/9---|
a|------------|
e|------------|

Verses:

e|-------------------------|
b|7-7-7-7-9-9/7-5--5-7/9~--|
g|8-8-9-8-8-8/6-6--6-6/8~--|
d|9-9-9-9-9-9/7-7--7-7/9~--|
a|-------------------------|
e|-------------------------|

So let your mind be carried,With the breeze

e|6-6-6-4--0-2-2-2-2-0---------|
b|4-4-4-4--0-0-0-0-0-0---------|
g|4-4-4-4--1-1-1-1-1-1---------|
d|4-4-4-4--2-2-2-2-2-2---------|
a|6-6-6-6--2-2-2-2-2-2---------|
e|4-4-4-4--0-0-0-0-0-0---------|

For you know your not the one's who carry


Chorus:

e|-------------------------------------|
b|-------------------------------------|
g|-------------------------------------|
d|-------------------------------------|
a|-------------------------------------|
e|*4*4*4*4*4*4*4*4-*0*0*0*0*0*0*0*0----|

The diseeeeeeeeease           

e|------------------------0-----------|
b|------------------------0-----------|
g|------------------------1-----------|
d|------------------------2-----------|
a|------------------------2-----------|
e|*4*4*4*4*4*4*4*4-*0*0*0-0-*0*0*0*0--|

Cause you're the lonely one

e|------------------------0-----------|
b|------------------------0-----------|
g|------------------------1-----------|
d|------------------------2-----------|
a|------------------------2-----------|
e|*4*4*4*4*4*4*4*4-*0*0*0-0-*0*0*0*0--|

The only one...

e|------------------------0----0---0----|
b|------------------------0----0---0----|
g|------------------------1----1---1----|
d|------------------------2----2---2----|
a|------------------------2----2---2----|
e|*4*4*4*4*4*4*4*4-*0*0*0-0-*0-0*0*0----|

The lonely one...

Outro:

e|-------------------------------------|
b|-------------------------------------|
g|-------------------------------------|
d|-------------------------------------| repeat X8
a|-------------------------------------|
e|*6*6*6*6*6*6*6*6*7*7*7*7*7*7*7*7*----|


Solo:

e|-------------------------------------|
b|-------------------------------------|
g|----------------------------4-4-4-4--|
d|6~-6-6-6-6-6-6-6-6-6-6-6-6-6---------|
a|-------------------------------------|
e|-------------------------------------|


e|----------------------------------------------------|
b|-------------------------7-7-7-9-9-9-9-9-9-9-9-9----|
g|8-8-8-8-8-8-8-8-8-8-8-8-8-8-------------------------|
d|----------------------------------------------------|
a|----------------------------------------------------|
e|----------------------------------------------------|



e|-------------------------------------------------------------------|
b|7-7-7-7-7-7-7-7-7-9-9-9-9-9-9-9-9-9-7-7-7-7-7-7-------12-12-12-12--|
g|-----------------------------------8---8-------8/13-13-------------|
d|-------------------------------------------------------------------|
a|-------------------------------------------------------------------|
e|-------------------------------------------------------------------|

e|-------------------------------------------------------------------|
b|12-12-12-12-12-12-12-12-12-12-12-12-12-12-12-12-12-12-14-14-14-----|
g|-------------------------------------------------------------------|
d|-------------------------------------------------------------------|
a|-------------------------------------------------------------------|
e|-------------------------------------------------------------------|

e|-----14------14------14-----14------14-----14------14------14------14--|
b|16-16---16-16---16-16--16-16--16-16---16-16--16-16---16-16----16-16----|
g|-----------------------------------------------------------------------|
d|-----------------------------------------------------------------------| 
a|-----------------------------------------------------------------------|
e|-----------------------------------------------------------------------|


e|16-16-16-16-16-16-16-16-16-16-16-16-16-16-16-16-16-16-16-16-16-16-16-16-|
b|------------------------------------------------------------------------|
g|------------------------------------------------------------------------|
d|------------------------------------------------------------------------|
a|------------------------------------------------------------------------|
e|------------------------------------------------------------------------|


Outro:

e|4--4-4-4-4-------0-0-0-0---|
b|4--4-4-4-4-------0-0-0-0---|
g|4--4-4-4-4----1--1-1-1-1---|
d|6--6-6-6-6----2--2-2-2-2---| repeat X2
a|6--6-6-6-6----2--2-2-2-2---|
e|4--4-4-4-4----0--0-0-0-0---|




e|4----|
b|4----|
g|4----|
d|6----|
a|6----|
e|4----|


e|-------------------------------------|
b|-------------------------------------|
g|-------------------------------------|
d|-------------------------------------| repeat X4
a|-------------------------------------|
e|*6*6*6*6*6*6*6*6*7*7*7*7*7*7*7*7*----|


e|5/7-5-4--6-6-6--0--2-2-2-------------------------|
b|5/7-5-4--4-4-4--0--0-0-0-------------------------|
g|6/8-6-7--4-4-4--1--1-1-1-------------------------|
d|7/9-7-6--4-4-4--2--2-2-2-------------------------|
a|7/9-7-6--6-6-6--2--2-2-2-------------------------|
e|5/7-5-4--4-4-4--0--0-0-0-------------------------|

So let your mind be carried,With the breeze

For you know your not the one's who carry

End :

e|-------------------------------------|
b|-------------------------------------|
g|-------------------------------------|
d|-------------------------------------|
a|-------------------------------------|
e|*4*4*4*4*4*4*4*4-*0*0*0*0*0*0*0*0----|

The disease

e|-------------------------------------|
b|-------------------------------------|
g|-------------------------------------|
d|-------------------------------------|
a|-------------------------------------|
e|*4*4*4*4*4*4*4*4-*0*0*0*0*0*0*0*0----|

Cause you're the lonely one

e|-------------------------------------|
b|-------------------------------------|
g|-------------------------------------|
d|-------------------------------------|
a|-------------------------------------|
e|*4*4*4*4*4*4*4*4-*0*0*0*0*0*0*0*0----|

The only one...

e|-------------------------------------|
b|-------------------------------------|
g|-------------------------------------|
d|-------------------------------------|
a|-------------------------------------|
e|*4*4*4*4*4*4*4*4-*0*0*0*0*0*0*0*0----|


The lonely one...


e|4----4----4-----------------------------|
b|4----4----4-----------------------------|
g|4----4----4-----------------------------|
d|6----6----6-----------------------------|
a|6----6----6-----------------------------|
e|4-*4-4-*4-4-----------------------------|

yeeees you did it!


please rate me and tell me what do you think!

thank you everyone!


https://www.youtube.com/watch?v=yuYvRkEvG9o
Добавлено: 20.07.2015
Вам также может быть интересно:
Другие материалы по этой песне:
  • Аккорды и текст

Страница создана 20.07.2015
http://primanota.ru/wipers/lonely-one-chords.htm
Привет, Гость.
Предлагаем пройти революционный курс по гитаре.
Подарок от PrimaNota.Ru, забирай!