PrimaNota.ru - самый крупный в мире бесплатный архив песенных текстов, аккордов, табулатур и нот


Wintersun - Winter Madness - текст песни, таба, бас-таба, видео

Регистрация Запомнить меня
Войти через:  Facebook Google Twitter Vk Yandex Mail.ru

Wintersun - Winter Madness - текст песни, таба, бас-таба, видео

Печатать
Просмотров: 181
Seeing as no one else made a Tab out of it. (all others are guitar pro and what not) 
you go!  Not exactly how they play it (in the live youtube videos) but same notes, almost 
should be in the same place.

Artist: Wintersun
Song: Winter Madness
Album: Wintersun
Part: Solo
Tuning: Standard

Legend:
b= bend
~= Swivel/ let ring
r= return from bend
p= pull off
h= hammer on
= Harmonic
\ or / = Slide down or up
^ or v= (crazier kind of) bend
. (under note)= Palm Mute
T= Tapping

e------------------------------------------------------------13---------------|
B----------------------------------------------------------15--14-15----------|
G-------------------14bh15p14---------------------14-----14---------13-14-16--|
D14b-14p12-13~11-12~---------15--17p15p14—<15>\-15-----15---------------15----|
A----------------------------------------------------17-----------------------|
E-----------------------------------------------------------------------------|
                                                . .  .  . .

e-12h15p12-------------------------17-19p15-------15-18~h19p18-22\------------|
B--------------------------------17---------17--17----------------------------|
G----------15p14p12-13^~-------17-------------16------------------------------|
D----------------------------19-----------------------------------------------|
A--------------------------19-------------------------------------------------|
E------------------------17---------------------------------------------------|


e--/12-h13p12----------------------------15h18p15----------------------------|
B------------15p13p12-13-15-17—17p15h17------------17p15---------------------|
G----------------------------------------------------------------------------|
D---------------------------------------------------------17p14-14h17p14--14-|
A-----------------------------------------------------------------------17---|
E----------------------------------------------------------------------------|


e----------------------------------------------------------------------------|
B----------------------------------------------------------------------------|
G----------------------------------------------------------------------------|
D-17^-17^v^~-15p14-15~-15p14------14-15p14--<14>------14-15p14h15-17p15h17---|
A---------------------------17--17--------17----17--17-----------------------|
E-----------------------------17------------------18 ------------------------|
                            .  . .         .     . . .

e---------------------------------------------17h18h20-22b-<22>~-------------|
B------------------------------------17h18h20--------------------------------|
G—14~---------------12-14—---15h17h19----------------------------------------|
D---------12-14-15-----------------------------------------------------------|
A-----13---------------------------------------------------------------------|
E----------------------------------------------------------------------------|


e-------------13h17p13------13-18p15------------------------------------------|
B-----------15--------15--15--------17----------------------14-15-14-15-18-15-|
G---------14------------14------------15---------------14-17------------------|
D-------15------------------------------17-15-14-15-17------------------------|
A—12h17-----------------------------------------------------------------------|
E-----------------------------------------------------------------------------|


e-------17b~rp15-17~\----------------------------------12--12-15p12------12--|
B-14-15---------------18p15--15----------15----------14--14--------13--13----|
G--------------------------14--14------14--14------14----------------12------|
D--------------------------------15--15-------15-14--------------------------|
A----------------------------------17----------------------------------------|
E----------------------------------------------------------------------------|


e-T20p13h17h20p17p13-T20p12h17h20p17p12-T19p10h15h19p15p10-T18p10h15h18p15p10-|
B-----------------------------------------------------------------------------|
G-----------------------------------------------------------------------------|
D-----------------------------------------------------------------------------|
A-----------------------------------------------------------------------------|
E-----------------------------------------------------------------------------|


e---17p13h17p13h17p13h17p13-12p9h12p9-13p10h13p10-12p9h12p9------------------|
B-----------------------------------------------------------15p11h15p11------|
G----------------------------------------------------------------------------|
D----------------------------------------------------------------------------|
A----------------------------------------------------------------------------|
E----------------------------------------------------------------------------|


e—---------------------------------18p15h18p15-------------------------------|
B-15p10h15p10-14p10h14p10-14p8\5/-------------17p14h17p14--------------------|
G----------------------------------------------------------------------------|
D---------------------------------------------------------20p19--------------|
A----------------------------------------------------------------------------|
E----------------------------------------------------------------------------|


e-------17-------------------------------13------------15p11-----------------|
B-----17--17--17-----------------------15--15--------15------13--------------|
G---18------18--18----------------13h16------16p13h16-----------12-----------|
D-19--------------19------------12--------------------------------13--12h13--|
A-------------------19p16-----14------------------------------------15-------|
E------------------------17-16-----------------------------------------------|


e-------------13-15-16-15-13-------------------------------------------------|
B----13h15/16----------------16-15-13----------------------------------------|
G-12----------------------------------15-13-12----------------------------10-|
D----------------------------------------------15-13-12-----------------10---|
A------------------------------------------------------15-13-11-10----11-----|
E-------------------------------------------------------------------13-------|


e-----13-16~-15h16p15--------------------------------------------------------|
B---13----------------18-16-15-16~\----------------13-15~-13p12-13~/20-<20>~-|
G-13---------------------------------------10-12-13--------------------------|
D----------------------------------10-12-13----------------------------------|
A----------------------------------------------------------------------------|
E----------------------------------------------------------------------------|


(Time is around 3:45 for this part)
e----------------------------------------------------------------------------|
B-13-16-15-13-15-16----------------------------------------------------------|
G------------------14-11-12-14-12-14--15-12-14-15-14-12---15-17-14-17-15-17--|
D----------------------------------------------------------------------------|
A----------------------------------------------------------------------------|
E----------------------------------------------------------------------------|


e----------------------------------------------------------------------------|
B----------------------------------------------------------------------------|
G-15-17-19-15-19-17--16-19-17-19-16-19-17-20-19-17-19-20-21-18-19-21-19-18---|
D----------------------------------------------------------------------------|
A----------------------------------------------------------------------------|
E----------------------------------------------------------------------------|


e-----------------------17h18---------------------------15h17p15-------------|
B-20-20p18-20p18p16-----------18p17p15\14-<14>/15h17h18----------18p17p15\14-|
G-------------------19-------------------------------------------------------|
D----------------------------------------------------------------------------|
A----------------------------------------------------------------------------|
E----------------------------------------------------------------------------|


e----------------------------------------------------------------------------|
B----------------------------------------------------------------------------|
G---15p14p12-----------------------12h14p12----------------------------------|
D------------15p14p12\11/12h14h15-----------15p14p12\11----------------------|
A-------------------------------------------------------12--------------12---|
E--------------------------------------------------------------12-13-15------|
                                                                .  .  .

(time is around 3:54 here)
e----------------------------------------------------------------------------|
B-------------------------------------------------------------------15p14h15-|
G----------------------------------------15p14h15----------18p16h18----------|
D-------------11h12h14-15p14h15-17p15h17----------17p14h17-------------------|
A----------12----------------------------------------------------------------|
E-12h13h15-------------------------------------------------------------------|


e------------------------------------------16-17~\---------------------------|
B---------17p15h17p14h15h17-18p17h18-----17----------------------------------|
G-14p13h14-----------------------------18------------------------------------|
D----------------------------------------------------------------------------|
A----------------------------------------------------------------------------|
E----------------------------------------------------------------------------|


(Time: 3:57)
e-18-22-20-18------------17-20-18-17------------15-18-17-15------------------|
B-------------22-20-18-20-----------20-18-17-18-------------18-17-15-17-15~\-|
G----------------------------------------------------------------------------|
D----------------------------------------------------------------------------|
A----------------------------------------------------------------------------|
E----------------------------------------------------------------------------|


e-------10-13-12-10-----10-13-12-10-----10-13-12-10---------------------------|
B-----10-----------14-10-----------14-10-----------14-12-10-------------------|
G---10------------------------------------------------------12-10-9-----------|
D-12---------------------------------------------------------------12-11-12---|\
A-----------------------------------------------------------------------------|
E-----------------------------------------------------------------------------|


e----------------------------------------------------------------------------|
B----------------------------------------------------------------------------|
G----2----7------------------------------------------------------------------|
D----2----7------------------------------------------------------------------|
A----0----5------------------------------------------------------------------|
E----------------------------------------------------------------------------|

And that's all you gotta do!

Check out youtube for videos, I may put one of this tab up sometime in the future, if I 
ever learn it well enough!

Enjoy!
Добавлено: 29.07.2012
Другие материалы по этой песне:

Страница создана 13.03.2012
http://primanota.ru/wintersun/winter-madness-chords.htm
Привет, Гость.
Предлагаем пройти революционный курс по гитаре.
Подарок от PrimaNota.Ru, забирай!