PrimaNota.ru - самый крупный в мире бесплатный архив песенных текстов, аккордов, табулатур и нот


Winter Solstice - Fall Of Rome - таба, видео

Регистрация Запомнить меня
Войти через:  Facebook Google Twitter Vk Yandex Mail.ru

Winter Solstice - Fall Of Rome - таба, видео

Печатать
Просмотров: 110
 guitar 1

D---------------------------------------------------|
A---------------------------------------------------|
F-----0---4-------0---4-------0---4---4-----0---4---|
C---4---4---4---4---4---4---4---4---4---2-4---4---4-|
G-2-----------3-----------5-------------------------|
C---------------------------------------------------|

 guitar 2 (after guitar 1 plays twice)

D--------------------------------|----------------------------------------|
A--------------------------------|----------------------------------------|
F-2h4-4-4/7--5--4--2h4-2-----2-4-|-2h4-4-4/7--5--4--7-5-4-5-4---4---------|
C------------------------4-5-----|----------------------------7---7-5-4-5-|
G--------------------------------|----------------------------------------|
C--------------------------------|----------------------------------------|
                         . . .

D-----------------2-3----3/5-3-2-3-2-------------|
A-----------5-3-5-----5--------------5-3---3h5-5-|
F-2h4-4-4/7------------------------------5-------|
C------------------------------------------------|
G------------------------------------------------|
C------------------------------------------------|

both guitars

D-5/7-5-7-7h8-5--8-7-5---5---7/10-7-|-5/7-5-7-7h8-5--8-7-5-7-5---7-----------|
A----------------------8---8--------|--------------------------8---8-7-8-7-5-|
F-----------------------------------|----------------------------------------|
C-----------------------------------|----------------------------------------|
G-----------------------------------|----------------------------------------|
C-----------------------------------|----------------------------------------|

D-5/7-5-7-7h8-5-----------------------|-5/7-7-7h8-5--10-8-7----7-8-8/10-|
A----------------8p7x-7p5x-5p3x-3h5-5-|---------------------10----------|
F-------------------------------------|---------------------------------|
C-------------------------------------|---------------------------------|
G-------------------------------------|---------------------------------|
C-------------------------------------|---------------------------------|

im almost positive that after this part there is at least three guitars so its going to 
me a little while but as soon as i get it down ill post it...peace...david

http://www.metalblade.com/bands/winter_solstice/index2005.html#
Добавлено: 02.05.2012
Другие материалы по этой песне:

Страница создана 14.04.2012
http://primanota.ru/winter-solstice/fall-of-rome-chords.htm
Привет, Гость.
Предлагаем пройти революционный курс по гитаре.
Подарок от PrimaNota.Ru, забирай!