PrimaNota.ru - самый крупный в мире бесплатный архив песенных текстов, аккордов, табулатур и нот


Winter Gloves - Strange Love - бас-таба, видео

Регистрация Запомнить меня
Войти через:  Facebook Google Twitter Vk Yandex Mail.ru

Winter Gloves - Strange Love - бас-таба, видео

Печатать
Просмотров: 71
Уроки эстрадного вокала в Санкт-Петербурге
-------------------------------------------------------------------------------
                             Strange Love - Winter Gloves
-------------------------------------------------------------------------------
Tabbed by: Dakota Smolders
E-mail: dakota_s_@hotmail.com

Tuning:Standard


Intro/Verse x2
G|---------------------------------------|
D|----------77-9-9-9-77-------1212121299-|
A|----------------------7-7-7------------|
E|-10-10-10------------------------------|

G|-----------------------------------------------|
D|----------77-9-9-9-77-------121212129999777799-|
A|----------------------7-7-7--------------------|
E|-10-10-10--------------------------------------|

G|---------------------------------------|
D|-------------9-9-9----------1212121299-|
A|----------------------7-7-7------------|
E|-10-10-10------------------------------|

G|-----------------------------------------------|
D|-------------9-9-9----------121212129999777799-|
A|----------------------7-7-7--------------------|
E|-10-10-10--------------------------------------|


Chorus x1
G|--7-7-7-7-4-4-4-4-------------|
D|------------------2-2-2-2-7-4-|
A|-5-5-5-5-2-2-2-2--------------|
E|-----------------0-0-0-0-5-2--|

G|--7-7-7-7-4-4-4-4-----------------|
D|------------------2-2-2-2-7-4-7-4-|
A|-5-5-5-5-2-2-2-2------------------|
E|-----------------0-0-0-0-5-2-5-2--|


Pre-Verse x1
G|---------------------------------------|
D|----------77-9-9-9-77-------1212121299-|
A|----------------------7-7-7------------|
E|-10-10-10------------------------------|

G|-----------------------------------------------|
D|----------77-9-9-9-77-------121212129999777799-|
A|----------------------7-7-7--------------------|
E|-10-10-10--------------------------------------|


Verse x1
G|---------------------------------------|
D|----------77-9-9-9-77-------1212121299-|
A|----------------------7-7-7------------|
E|-10-10-10------------------------------|

G|-----------------------------------------------|
D|----------77-9-9-9-77-------121212129999777799-|
A|----------------------7-7-7--------------------|
E|-10-10-10--------------------------------------|


Chorus x2
G|--7-7-7-7-4-4-4-4-------------|
D|------------------2-2-2-2-7-4-|
A|-5-5-5-5-2-2-2-2--------------|
E|-----------------0-0-0-0-5-2--|

G|--7-7-7-7-4-4-4-4-----------------|
D|------------------2-2-2-2-7-4-7-4-|
A|-5-5-5-5-2-2-2-2------------------|
E|-----------------0-0-0-0-5-2-5-2--|

Outro: REST

| /  slide up
| \  slide down
| h  hammer-on
| p  pull-off
| ~  vibrato
| +  harmonic
| x  Mute note
===============================================================================
Добавлено: 31.10.2013
Другие материалы по этой песне:
  • Аккорды и текст

Страница создана 31.10.2013
http://primanota.ru/winter-gloves/strange-love-chords.htm
Привет, Гость.
Предлагаем пройти революционный курс по гитаре.
Подарок от PrimaNota.Ru, забирай!