PrimaNota.ru - самый крупный в мире бесплатный архив песенных текстов, аккордов, табулатур и нот


Wings - Over America - таба, видео

Регистрация Запомнить меня
Войти через:  Facebook Google Twitter Vk Yandex Mail.ru

Wings - Over America - таба, видео

Печатать
Просмотров: 108
                                 Wings
                              VENUS & MARS
Intro1:

E|------2-------2-------2-------2-------2-------2----|
B|------3-------3-------3-------3-------3-------3----|
G|----2---2---2---2---2---2---2---2---2---2---2---2--|
D|--0-------0-------0-------0-------0----------------|
A|------------------------------------------0--------|
E|---------------------------------------------------|

Intro2:

E|--2-3--/5-2---5-7--/8-7---5-3-2-3--2-0--0--2-0---0----0-2--5-2--|
B|---------------------------------------3-------3----3-----------|
G|----------------------------------------------------------------|
D|----------------------------------------------------------------|
A|----------------------------------------------------------------|
E|----------------------------------------------------------------|


D                            Am
Sitting in the stands of the sports arena,
                        D
Waiting for the show to begin.
                          Am
Red lights, green lights, strawberry wine,
  Em/B                Em7
A good friend of mine follows the stars,
Asus7                      A7
Venus and Mars are alright tonight.

G  A  F  D
G  A  F  D
G  A  F
G  D  A

                                 Wings
                               Rock Show

E|-------------------------------------|
B|-------------------------------------|
G|-----------------2-------------------|
D|-----------2-2-4--------------2---2--|
A|---0-0-3-4------------0-0-3-4---4----|
E|-------------------------------------|

E|-------------------------------------|
B|-------------------------------------|
G|-----------------2-------------------|
D|-----------2-2-4--------------2---2--|
A|---0-0-3-4------------0-0-3-4---4----|
E|-------------------------------------|

E|-------------------------------------|
B|-------------------------------------|
G|-------------------------------------|
D|----------------------0-1-2-3-4------|
A|------------0-1-2-3-4----------------|
E|--0-1-2-3-4--------------------------|


A
What's that man holding in his hand?

He looks a lot like a guy I knew way back when
E7
Its silly willy with philly band
A
Could be ... Oo-ee ...

A
What's that man movin' cross the stage?

It looks a lot like the one used by jimmy page
E7
Its like a relic from a different age
A
Could be ...Oo-ee ...

D
If there's rock show
A7
At the concertgebow
D
They're got long hair
A7
At the madison square
D
You've got rock and roll
A7
At the hollywood bowl,

We'll be there ... Oo yeah ...

D                                           D
The lights go down - they're back in town o.k.
D                                G    G A D
Behind the stacks you glimpse an axe
D                                      D
The tension mounts you score an ounce ole!
E                                               A
Temperatures rise as you see the white of their eyes

E|-------------------------------------|
B|-------------------------------------|
G|-------------------------------------|
D|-----------------------0-1-2-3-4-----|
A|-------------0-1-2-3-4---------------|
E|---0-1-2-3-4-------------------------|

D
If there's rock show
A7
At the concertgebow
D
You're got long hair
A7
At the madison square
D
They've got rock and roll
A7
At the hollywood bowl,

We'll be there ... Oo yeah ...

A
In my green metal suit I'm preparing to shoot up the city
A                                                                A Bb B
And the ring at the end of my nose makes me look rather pretty
B
Its a pity there's nobody here to witness the end
B           A        G          F            E                     D A C G D A A   D A C G D A A
Save for my dear old friend and confidante - madamoiselle kitty

A
What's that man movin' to and fro?

That decibel meter doesn't seem to be reading low.
E7
But they was louder at the rainbow
A
Could be .... Oo-ee ...

D
If there's rock show
A7
At the concertgebow
D
They're got long hair
A7
At the madison square
D
You got rock and roll
A7
At the hollywood bowl,

We'll be there ... Oo yeah ...

D                           A
If there's rock show ...
D                           A
If there's rock show ...
D                           A
If there's rock show ...

                                 Wings
                                  Jet


E|-----------------------------------------|
B|-----------------------------------------|
G|--4---4-6-7-------4---4-6-7----9---------|
D|--4---4-6-7-------4---4-6-7----9---------|
A|--2---2-4-5-------2---2-4-5----7---------|
E|-----------------------------------------|


A                                D/A      A
Jet! I can almost remember their funny faces
That time you told me that
                              D/A   A
You were going to be marrying soon.
    C#m7                 Bm
And Jet, I thought the only
          D6               A
Lonely place was on the moon.
A    A
Jet! Jet!

A                                 D/A        A
Jet! Was your father as bold as a sergeant major?
How come he told you that
                           D/A  A
You were hardly old enough yet?
    C#m7                 Bm
And Jet, I thought the major
        D6           A
Was a lady suffragette.
A    A
Jet! Jet!

Bm                        E
Ah, matter, want Jet to always love me?
Bm                        E
Ah, matter, want Jet to always love me?
Bm          A
Ah, matter, much later. Oh Jet

D A  C G  D A A
D A  C G  D A A


E|-17---14----------------------------------|
B|---------17-14-------------14-------------|
G|---------------16-14-14-16----------------|
D|------------------------------16-16-16-14-|
A|------------------------------------------|
E|------------------------------------------|

E|-/17-17-17-17-14-------------------------------------------------|
B|-----------------17-14-------------14----------------------------|
G|-----------------------16-14-14-16-------------------------------|
D|--------------------------------------16---14h16-14h16-14h16-14--|
A|-----------------------------------------------------------------|
E|-----------------------------------------------------------------|

Cmaj7                Bm
Jet, I thought the major
        D6           A
Was a lady suffragette.
A    A
Jet!Jet!

Bm                        E
Ah, matter, want Jet to always love me?
Bm                        E
Ah, matter, want Jet to always love me?
Bm          A
Ah, matter, much later.

D A  C G  D A A
D A  C G  D A A

A                                    D/A         A
Jet! with the wind in your hair of a thousand laces.
Climb on the back and we'll
                     D/A  A
Go for a ride in the sky.
Cmaj7                Bm
Jet, I thought the major
        D6           A
Was a lady suffragette.
A    A
Jet! Jet!

      Yeah
E|--------------------------|
B|--------------------------|
G|----9---------------------|
D|----9---------------------|
A|----7---------------------|
E|--------------------------|
C#m               Bm
I thought the major
       D6           A
Was a lady suffragette.
A
Jet!

E|-----------------------------------------|
B|-----------------------------------------|
G|--4---4-6-7-------4---4-6-7----9---------|
D|--4---4-6-7-------4---4-6-7----9---------|
A|--2---2-4-5-------2---2-4-5----7---------|
E|-----------------------------------------|


E|-17---14-----------------------|
B|---------17-14-------------14--|
G|---------------16-14-14-16-----|
D|-------------------------------|
A|-------------------------------|
E|-------------------------------|

A  A  D  A~

=======================================================================


                               Wings
                           Let me roll it


Intro:
  A       F#m        A       F#m       E     A       E     A       E
-----------------------------------------------------------------------|
-----------------------------------------------------------------------|
-----------------------------------------------------------------------|
--------2-4---2------------2-4-/6-4--2-------------2--------------2----|
--0--/4--------------0--/4--------------------0--4----------0---4------|
---------------------------------------0--0/4--------0--0/4---------0--|

  E     A       E     A       E
---------------------------------------------------------|
---------------------------------------------------------|
---------------------------------------------------------|
--------------2-------------2----------------------------|
---------0--4----------0--4------------------------------|
--0--0/4--------0--0/4--------0-0-0-0-0-0-2--/12---------|
Добавлено: 02.12.2013
Другие материалы по этой песне:
  • Аккорды и текст

Страница создана 02.12.2013
http://primanota.ru/wings/over-america-chords.htm
Привет, Гость.
Предлагаем пройти революционный курс по гитаре.
Подарок от PrimaNota.Ru, забирай!