PrimaNota.ru - самый крупный в мире бесплатный архив песенных текстов, аккордов, табулатур и нот


Wings - No Words - аккорды и текст, таба, видео

Регистрация Запомнить меня
Войти через:  Facebook Google Twitter Vk Yandex Mail.ru

Wings - No Words - аккорды и текст, таба, видео

Печатать
Просмотров: 289
Уроки эстрадного вокала в Санкт-Петербурге
Авторы музыки: Paul McCartney, Denny Laine

No Words
Wings
---------------------------------------------------------------------------
                No Words - Paul McCartney and Wings 
---------------------------------------------------------------------------
Tabbed by: maguri
Tuning: Standard

Paul McCartney and Wings
No Words (1973)
(Paul McCartney/Denny Laine)
From: "Band on the Run"


INTRO
  A                A7/G             G6/B             F#7
  1 + 2 + 3 + 4 +  1 + 2 + 3 + 4 +  1 + 2 + 3 + 4 +  1 + 2 + 3 + 4 +
e|--------------0-|--------------0-|0---------------|0---------------|
B|------2---2-23--|------2---2-23--|------0-----023-|2---------------|
G|----2-----------|----0-----------|----0-----0-----|3-------------7-|
D|--2-------------|--2-------------|--2-------------|4---------------|
A|0---------------|----------------|(2)-------------|4---------------|
E|----------------|3---------------|----------------|2---------------|
  (arpeggio git)                                             (slide git)
  Bm                A/C# E7         A                [A (VERSE)
  1 + 2 + 3 + 4 +  1 + 2 + 3 + 4 +  1 + 2 + 3 + 4 +  1 + 2 + 3 + 4 +
e|----------------|----------------|----------------|[----------------|
B|7-7---7---------|7---------------|----------------|[----------------|
G|--------------7-|-/9---7-----9-7-|7-6-------------|[2---------------|
D|----------------|----------------|----------------|[2---------------|
A|----------------|----------------|--------------0-|[0---------------|
E|----------------|----------------|------------02-2|[----------------|
  (slide git)                                  (riff)


CHORUS
  E                                 C#7            F#m
  1 + 2 + 3 + 4 +  1 + 2 + 3 + 4 +  1 + 2 + 3 + 4 +  1  + 2  + 3 + 4 +
e|----------------|----------------|------10--9-----|----------------|
B|----------------|----9-10---10-9-|----9---------12|10-9-10---------|
G|----9-11--11--9-|--9-------------|--10------------|-------11-------|
D|--9-------------|9---------------|11--------------|----------------|
A|11--------------|----------------|----------------|----------------|
E|----------------|----------------|----------------|----------------|
  (riff)

---------------------------------------------------------------------------
CHORDS

          E-A-D-G-B-e
A7/G      3-x-2-0-2-0
G6/B      x-2-0-0-0-0
F#7       2-4-4-3-2-0
A/C#      x-4-2-2-2-0
D/E       x-x-2-2-3-2
Fdim      x-x-0-1-0-1
C#7       x-4-3-4-2-x
B9        x-2-1-2-2-2

---------------------------------------------------------------------------


INTRO 
| A | A7/G | G6/B | F#7 | 
| Bm | Bm A/C# E7    | A |
       (guitars: see above)

VERSE
A                      A7
You want to give your love away
    G6            F#7
And end up giving nothing
    Bm                 D/E       Fdim     A
I'm not surprised that your black eyes are gazing.


VERSE
A                    A7
You say that love is everything
    G6               F#7
And what we need the most of
  Bm                    D/E      Fdim    A
I wish you knew, that's just how true my love was.


CHORUS
E            C#7   F#m
[riff] (see above)
B9       A      E            C#7   F#m
No words for my love [riff]


MIDDLE 8
A                 A7
Your burning love,  sweet burning love
G6             F#7
  It's deep inside,
            Bm                    
You mustn't hide, your burning Love
E       Fdim          A
  Sweet burning love, your burning love.


VERSE
A                     A7
You want to turn your head away
    G6                 F#7
And someone's thinking of you
  Bm                   E    Fdim  A
I wish you'd see, it's only me, I love you.


CHORUS
E            C#7   F#m
[riff] (see above)
B9       A      E            C#7   F#m
No words for my love [riff]


CODA 
|: Bm | E :|
[git solo, repeat and fade)
Добавлено: 03.06.2015
Другие материалы по этой песне:
  • Аккорды и текст

Страница создана 16.06.2012
http://primanota.ru/wings/no-words-chords.htm
Привет, Гость.
Предлагаем пройти революционный курс по гитаре.
Подарок от PrimaNota.Ru, забирай!