PrimaNota.ru - самый крупный в мире бесплатный архив песенных текстов, аккордов, табулатур и нот


Winger - Like A Ritual - текст песни, таба, бас-таба, видео

Регистрация Запомнить меня
Войти через:  Facebook Google Twitter Vk Yandex Mail.ru

Winger - Like A Ritual - текст песни, таба, бас-таба, видео

Печатать
Просмотров: 138
-------------------------------------------------------------------------------
                             LIKE A RITUAL - Winger
-------------------------------------------------------------------------------
Tabbed by: Isaias Garcia (TexasFury)

Tuning: tune down 1/2 step


Rhythm

                          PM PM    PM           PM        PM    PM     PM        
      W                   E  E  E  E  E.   S E  E     S S E  E  E  E.  S  E  E   
D#||-------------------|---------------------------|----------------------------|
A#||-------------------|---------------------------|----------------------------|
F#||-------------------|-------------------2-------|----------------------7--7--|
C#||-------------------|-------------------2-------|----------------------------|
G#||-------------------|-------------------0-------|----------------------5--5--|
D#||-------------------|--0--0--2--0--3~--------0--|--x-x-0--2--0--3---0--------|


     PM    PM           PM        PM    PM                   PM    PM           PM  
  E  E  E  E  E.   S E  E     S S E  E  E  Q     E  E     E  E  E  E  E.   S E  E   
---------------------------|---------------------------|---------------------------|
---------------------------|---------------------------|---------------------------|
-------------------2-------|---------------------7--7--|-------------------2-------|
-------------------2-------|---------------------------|-------------------2-------|
-------------------0----2--|---------------------5--5--|-------------------0-------|
-----0--2--0--3~--------0--|--x-x-0--2--0--3~----------|-----0--2--0--3~--------0--|


      PM    PM     PM             PM    PM           PM        PM    PM               
  S S E  E  E  E.  S  E  E     E  E  E  E  E.   S E  E     S S E  E  E  E.   S E  E   
----------------------------|---------------------------|----------------------------|
----------------------------|---------------------------|----------------------------|
----------------------7--7--|-------------------2-------|--------------------x-7--7--|
----------------------------|-------------------2-------|--x-x---------------x-------|
----------------------5--5--|-------------------0-------|--x-x-----------------5--5--|
--x-x-0--2--0--3---0--------|-----0--2--0--3~--------0--|------0--2--0--3~-----------|


              PM     PM PM  PM PM PM        PM PM   PM PM                
  E   S S S S E  E   S  S   S  S  E     E   S  S  S S  E  E.   S S S E   
-------------------------------------|----------------------------------|
-------------------------------------|----------------------------------|
--------2----------------------------|----------------------------------|
--------2----------------------------|-------------------------2--------|
--3b--0---x-x-0--2~--0--0--(x)-0--0--|--3~--0--0--x-0--0--5~-----5-3-2--|
-------------------------------------|----------------------------------|


              PM     PM PM     W W         PM PM PM PM                   
  E   S S S S E  E   S  S   S  S E     E   S  S  S  S  E   E  E  S S E   
------------------------------------|-----------------------------------|
------------------------------------|-----------------------------------|
--------2---------------------------|-----------------------------------|
--------2---------------------------|-----------------------------------|
--3~--0---x-x-0--2~--0--0--(x)-0-0--|--3~--0--0--3--0--5~--L--7--6-5-3--|
------------------------------------|-----------------------------------|


              PM     PM PM  PM PM PM       PM PM PM PM               
  E   S S S S E  E   S  S   S  S  E     E  S  S  S  S  E  H          
-------------------------------------|------------------------------|
-------------------------------------|------------------------------|
--------2----------------------------|-----------------7--L~--------|
--------2----------------------------|-----------------7--L~--------|
--3b--0---x-x-0--2~--0--0--(x)-0--0--|--3--0--0--0--0--5--L~--------|
-------------------------------------|------------------------------|


  PM PM PM PM     PM   PM PM    PM    PM PM PM PM     PM   PM   PM        
  S  S  S  S  E   E  S E  S  E  E     S  S  S  S  E   E  S S  S S  S E.   
-----------------------------------|-------------------------------------|
-----------------------------------|-------------------------------------|
-----------------------------------|-------------------------------------|
-----------------------------------|-------------------------------------|
--------------5~-------------5-----|--------------5~----------5----4-----|
--0--0--0--0------0----0--0-----0--|--0--0--0--0------0----0----0----3---|


  PM PM PM PM     PM   PM PM     PM    PM PM PM PM     PM   PM   PM        
  S  S  S  S  E   E  S E  S  E   E     S  S  S  S  E   E  S S  S S  Q      
------------------------------------|-------------------------------------|
------------------------------------|-------------------------------------|
------------------------------------|-------------------------------------|
------------------------------------|-------------------------------------|
--------------5~-------------5~-----|--------------5~----------5----3~----|
--0--0--0--0------0----0--0------0--|--0--0--0--0------0----0----0--------|


  PM PM PM PM     PM   PM PM     PM    PM PM PM PM     PM   PM   PM        
  S  S  S  S  E   E  S E  S  E   E     S  S  S  S  E   E  S S  S S  S E.   
------------------------------------|-------------------------------------|
------------------------------------|-------------------------------------|
------------------------------------|-------------------------------------|
------------------------------------|-------------------------------------|
--------------5~-------------5~-----|--------------5~----------5----4-----|
--0--0--0--0------0----0--0------0--|--0--0--0--0------0----0----0----3---|


  PM PM PM PM     PM   PM PM     PM    PM PM PM PM   PM                   
  S  S  S  S  E   E  S E  S  E   E     S  S  S  S  S S  E  Q     S S S S  
------------------------------------|------------------------------------|
------------------------------------|------------------------------------|
------------------------------------|------------------------------------|
------------------------------------|------------------------------------|
--------------5~-------------5~-----|--------------5----3--L~------------|
--0--0--0--0------0----0--0------0--|--0--0--0--0----0-----------3-5-5-3-|


  PM PM    PM           PM        PM    PM                   PM    PM           PM  
  E  E  E  E  E.   S E  E     S S E  E  E  Q     E  E     E  E  E  E  E.   S E  E   
---------------------------|---------------------------|---------------------------|
---------------------------|---------------------------|---------------------------|
-------------------2-------|---------------------7--7--|-------------------2-------|
-------------------2-------|--x-x----------------------|-------------------2-------|
-------------------0-------|--x-x----------------5--5--|-------------------0-------|
--0--0--2--0--3~--------0--|------0--2--0--3~----------|-----0--2--0--3~--------0--|


      PM    PM                 PM PM    PM           PM        PM    PM              
  S S E  E  E  E.   S E  E     E  E  E  E  E.   S E  E     S S E  E  E  Q     E  E   
----------------------------|---------------------------|---------------------------|
----------------------------|---------------------------|---------------------------|
----------------------7--7--|-------------------2-------|---------------------7--7--|
--x-x---------------x-------|-------------------2-------|--x-x----------------------|
--x-x---------------x-5--5--|-------------------0-------|--x-x----------------5--5--|
------0--2--0--3~-----------|--0--0--2--0--3~--------0--|------0--2--0--3~----------|


     PM    PM           PM        PM    PM                             PM     PM PM     PM PM  
  E  E  E  E  E.   S E  E     S S E  E  E  E.   S E  E     E   S S S S E  E   S  S   S  S  E   
---------------------------|----------------------------|-------------------------------------|
---------------------------|----------------------------|-------------------------------------|
-------------------2-------|----------------------7--7--|--------2----------------------------|
-------------------2-------|--x-x---------------x-------|--------2----------------------------|
-------------------0-------|--x-x---------------x-5--5--|--3b--0---x-x-0--2~--0--0--(x)-0--0--|
-----0--2--0--3~--------0--|------0--2--0--3~-----------|-------------------------------------|


      PM PM   PM PM                              PM     PM PM     PM PM  
  E   S  S  S S  E  E.   S S S E     E   S S S S E  E   S  S   S  S  E   
----------------------------------|-------------------------------------|
----------------------------------|-------------------------------------|
----------------------------------|--------2----------------------------|
-------------------------2--------|--------2----------------------------|
--3~--0--0--x-0--0--5~-----5-3-2--|--3~--0---x-x-0--2~--0--0--(x)-0--0--|
----------------------------------|-------------------------------------|


     PM PM   PM                                  PM     PM PM     PM PM  
  E  S  S  S S  E   E   E  S S E     E   S S S S E  E   S  S   S  S  E   
----------------------------------|-------------------------------------|
----------------------------------|-------------------------------------|
----------------7~--L~------------|--------2----------------------------|
----------------7~--L~------------|--------2----------------------------|
--3--0--0--3-0----------7--6-5-3--|--3b--0---x-x-0--2~--0--0--(x)-0--0--|
----------------------------------|-------------------------------------|


     PM PM   PM                 PM PM PM PM     PM   PM PM    PM  
  E  S  S  S S  E  H            S  S  S  S  E   E  S E  S  E  E   
-----------------------------|-----------------------------------|
-----------------------------|-----------------------------------|
----------------7--L~--------|-----------------------------------|
----------------7--L~--------|-----------------------------------|
--3--0--0--0-0--5--L~--------|--------------5~-------------5-----|
-----------------------------|--0--0--0--0------0----0--0-----0--|


  PM PM PM PM     PM   PM   PM          PM PM PM PM     PM   PM PM     PM  
  S  S  S  S  E   E  S S  S S  S E.     S  S  S  S  E   E  S E  S  E   E   
-------------------------------------|------------------------------------|
-------------------------------------|------------------------------------|
-------------------------------------|------------------------------------|
-------------------------------------|------------------------------------|
--------------5~----------5----4-----|--------------5~-------------5~-----|
--0--0--0--0------0----0----0----3---|--0--0--0--0------0----0--0------0--|


  PM PM PM PM     PM   PM   PM          PM PM PM PM     PM   PM PM     PM  
  S  S  S  S  E   E  S S  S S  Q        S  S  S  S  E   E  S E  S  E   E   
-------------------------------------|------------------------------------|
-------------------------------------|------------------------------------|
-------------------------------------|------------------------------------|
-------------------------------------|------------------------------------|
--------------5~----------5----3~----|--------------5~-------------5~-----|
--0--0--0--0------0----0----0--------|--0--0--0--0------0----0--0------0--|


  PM PM PM PM     PM   PM   PM          PM PM PM PM     PM   PM PM     PM  
  S  S  S  S  E   E  S S  S S  S E.     S  S  S  S  E   E  S E  S  E   E   
-------------------------------------|------------------------------------|
-------------------------------------|------------------------------------|
-------------------------------------|------------------------------------|
-------------------------------------|------------------------------------|
--------------5~----------5----4-----|--------------5~-------------5~-----|
--0--0--0--0------0----0----0----3---|--0--0--0--0------0----0--0------0--|


  PM PM PM PM   PM                     PM PM PM     PM PM           PM PM PM     PM PM         
  S  S  S  S  S S  E  Q     S S S S    S  S  E  S S E  Q    Q       S  S  E  S S E  Q    Q     
------------------------------------|----------------------------|----------------------------|
------------------------------------|----------------------------|----------------------------|
------------------------------------|----------------------------|----------------------------|
------------------------------------|----------------------------|----------------------------|
--------------5----3--L~------------|----------------------------|--2--4--4--x-x-2--4---------|
--0--0--0--0----0-----------3-5-5-3-|--0--2--2--x-x-0--2---------|----------------------------|


  PM PM PM     PM PM           PM PM PM     PM PM              PM PM PM     PM PM         
  S  S  E  S S E  Q    Q       S  S  E  S S E  Q     S S E     S  S  E  S S E  Q    Q     
----------------------------|-------------------------------|----------------------------|
----------------------------|-------------------------------|----------------------------|
----------------------------|-------------------------------|----------------------------|
----------------------------|-------------------------------|----------------------------|
----------------------------|--2--4--4--x-x-2--L~-----------|----------------------------|
--0--2--2--x-x-0--2---------|------------------------5-4-2--|--0--2--2--x-x-0--2---------|


  PM PM PM     PM PM           PM PM PM     PM PM           PM PM PM     PM PM            
  S  S  E  S S E  Q    Q       S  S  E  S S E  Q    Q       S  S  E  S S E  Q     S S E   
----------------------------|----------------------------|-------------------------------|
----------------------------|----------------------------|-------------------------------|
----------------------------|----------------------------|-------------------------------|
----------------------------|----------------------------|-------------------------------|
--2--4--4--x-x-2--4---------|----------------------------|--2--4--4--x-x-2--L~-----------|
----------------------------|--0--2--2--x-x-0--2---------|------------------------5-4-2--|


                             PM PM    PM           PM        PM    PM     PM        
  E  S S Q    S S E  Q       E  E  E  E  E.   S E  E     S S E  E  E  E.  S  E  E   
--------------------------|---------------------------|----------------------------|
--------------------------|---------------------------|----------------------------|
--------------------------|-------------------2-------|----------------------7--7--|
-----2--------------------|-------------------2-------|--x-x-----------------------|
-------5-4----4-2---------|-------------------0-------|--x-x-----------------5--5--|
------------------5-------|--0--0--2--0--3~--------0--|------0--2--0--3---0--------|


     PM    PM           PM        PM    PM                   PM    PM           PM  
  E  E  E  E  E.   S E  E     S S E  E  E  Q     E  E     E  E  E  E  E.   S E  E   
---------------------------|---------------------------|---------------------------|
---------------------------|---------------------------|---------------------------|
-------------------2-------|---------------------7--7--|-------------------2-------|
-------------------2-------|--x-x----------------------|-------------------2-------|
-------------------0-------|--x-x----------------5--5--|-------------------0-------|
-----0--2--0--3~--------0--|------0--2--0--3~----------|-----0--2--0--3~--------0--|


      PM    PM     PM             PM    PM           PM        PM    PM              
  S S E  E  E  E.  S  E  E     E  E  E  E  E.   S E  E     S S E  E  E  Q     E  E   
----------------------------|---------------------------|---------------------------|
----------------------------|---------------------------|---------------------------|
----------------------7--7--|-------------------2-------|---------------------7--7--|
--x-x-----------------------|-------------------2-------|--x-x----------------------|
--x-x-----------------5--5--|-------------------0----2--|--x-x----------------5--5--|
------0--2--0--3---0--------|-----0--2--0--3~--------0--|------0--2--0--3~----------|


              PM     PM PM     PM PM       PM PM   PM PM        PM PM PM  
  E   S S S S E  E   S  S   S  S  E     E  S  S  S S  E  E.   S S  S  E   
-------------------------------------|-----------------------------------|
-------------------------------------|-----------------------------------|
--------2----------------------------|-----------------------------------|
--------2----------------------------|------------------------2----------|
--3b--0---x-x-0--2~--0--0--(x)-0--0--|--3--0--0--x-0--0--5~-----5--3--2--|
-------------------------------------|-----------------------------------|


              PM     PM PM     PM PM       PM PM   PM                    
  E   S S S S E  E   S  S   S  S  E     E  S  S  S S  E   E   E  S S E   
-------------------------------------|----------------------------------|
-------------------------------------|----------------------------------|
--------2----------------------------|----------------7~--L~------------|
--------2----------------------------|----------------7~--L~------------|
--3~--0---x-x-0--2~--0--0--(x)-0--0--|--3--0--0--3-0----------7--6-5-3--|
-------------------------------------|----------------------------------|


              PM     PM PM     PM PM        PM PM   PM PM     PM PM     PM PM  
  E   S S S S E  E   S  S   S  S  E     E   S  S  S S  E  E   S  S   S  S  E   
-------------------------------------|----------------------------------------|
-------------------------------------|----------------------------------------|
--------2----------------------------|----------------------------------------|
--------2----------------------------|----------------------------------------|
--3b--0---x-x-0--2~--0--0--(x)-0--0--|--3~--0--0--x-0--0--5~--0--0--(x)-0--0--|
-------------------------------------|----------------------------------------|


      PM PM   PM PM     PM PM     PM PM                                     
  E   S  S  S S  E  E   S  S   S  S  E     S S S S S S E  S  S S S S S  E   
----------------------------------------|----------------------------------|
----------------------------------------|----------------------------------|
----------------------------------------|----------------------------------|
----------------------------------------|--6-7-6---5-4----2h-3-------------|
--7~--0--0--x-0--0--8~--0--0--(x)-0--0--|--------7-----5-------3-5-6-------|
----------------------------------------|----------------------------1~-1--|


  PM PM PM    PM                                     PM PM PM PM     PM   PM PM    PM  
  S  E  S  E  E  H           H        Q     Q        S  S  S  S  E   E  S E  S  E  E   
--------------------------|-----------------------|-----------------------------------|
--------------------------|-----------------------|-----------------------------------|
--------------------------|-----------------------|-----------------------------------|
--------------------------|-----------------------|-----------------------------------|
-----------5--------------|-----------------------|--------------5~-------------5-----|
--0--0--0-----0-----------|----------------12\----|--0--0--0--0------0----0--0-----0--|


  PM PM PM PM     PM   PM   PM          PM PM PM PM     PM   PM PM     PM  
  S  S  S  S  E   E  S S  S S  S E.     S  S  S  S  E   E  S E  S  E   E   
-------------------------------------|------------------------------------|
-------------------------------------|------------------------------------|
-------------------------------------|------------------------------------|
-------------------------------------|------------------------------------|
--------------5~----------5----4-----|--------------5~-------------5~-----|
--0--0--0--0------0----0----0----3---|--0--0--0--0------0----0--0------0--|


  PM PM PM PM     PM   PM   PM          PM PM PM PM     PM   PM PM    PM  
  S  S  S  S  E   E  S S  S S  Q        S  S  S  S  E   E  S E  S  E  E   
-------------------------------------|-----------------------------------|
-------------------------------------|-----------------------------------|
-------------------------------------|-----------------------------------|
-------------------------------------|-----------------------------------|
--------------5~----------5----3~----|--------------5~-------------5-----|
--0--0--0--0------0----0----0--------|--0--0--0--0------0----0--0-----0--|


  PM PM PM PM     PM   PM   PM          PM PM PM PM     PM   PM PM     PM  
  S  S  S  S  E   E  S S  S S  S E.     S  S  S  S  E   E  S E  S  E   E   
-------------------------------------|------------------------------------|
-------------------------------------|------------------------------------|
-------------------------------------|------------------------------------|
-------------------------------------|------------------------------------|
--------------5~----------5----4-----|--------------5~-------------5~-----|
--0--0--0--0------0----0----0----3---|--0--0--0--0------0----0--0------0--|


  PM PM PM PM                         PM PM PM PM     PM   PM PM    PM  
  S  S  S  S  S S E  Q     S S S S    S  S  S  S  E   E  S E  S  E  E   
-----------------------------------|-----------------------------------|
-----------------------------------|-----------------------------------|
-----------------------------------|-----------------------------------|
-----------------------------------|-----------------------------------|
--------------5---3--L~------------|--------------5~-------------5-----|
--0--0--0--0----0----------3-5-5-3-|--0--0--0--0------0----0--0-----0--|


  PM PM PM PM     PM   PM   PM          PM PM PM PM     PM   PM PM     PM  
  S  S  S  S  E   E  S S  S S  S E.     S  S  S  S  E   E  S E  S  E   E   
-------------------------------------|------------------------------------|
-------------------------------------|------------------------------------|
-------------------------------------|------------------------------------|
-------------------------------------|------------------------------------|
--------------5~----------5----4-----|--------------5~-------------5~-----|
--0--0--0--0------0----0----0----3---|--0--0--0--0------0----0--0------0--|


  PM PM PM PM     PM   PM   PM          PM PM PM PM     PM   PM PM    PM  
  S  S  S  S  E   E  S S  S S  Q        S  S  S  S  E   E  S E  S  E  E   
-------------------------------------|-----------------------------------|
-------------------------------------|-----------------------------------|
-------------------------------------|-----------------------------------|
-------------------------------------|-----------------------------------|
--------------5~----------5----3~----|--------------5~-------------5-----|
--0--0--0--0------0----0----0--------|--0--0--0--0------0----0--0-----0--|


  PM PM PM PM     PM   PM   PM          PM PM PM PM     PM   PM PM     PM  
  S  S  S  S  E   E  S S  S S  S E.     S  S  S  S  E   E  S E  S  E   E   
-------------------------------------|------------------------------------|
-------------------------------------|------------------------------------|
-------------------------------------|------------------------------------|
-------------------------------------|------------------------------------|
--------------5~----------5----4-----|--------------5~-------------5~-----|
--0--0--0--0------0----0----0----3---|--0--0--0--0------0----0--0------0--|


  PM PM PM PM                         PM PM PM PM     PM   PM PM    PM  
  S  S  S  S  S S E  Q     S S S S    S  S  S  S  E   E  S E  S  E  E   
-----------------------------------|-----------------------------------|
-----------------------------------|-----------------------------------|
-----------------------------------|-----------------------------------|
-----------------------------------|-----------------------------------|
--------------5---3--L~------------|--------------5~-------------5-----|
--0--0--0--0----0----------3-5-5-3-|--0--0--0--0------0----0--0-----0--|


  PM PM PM PM     PM   PM   PM          PM PM PM PM     PM   PM PM     PM  
  S  S  S  S  E   E  S S  S S  S E.     S  S  S  S  E   E  S E  S  E   E   
-------------------------------------|------------------------------------|
-------------------------------------|------------------------------------|
-------------------------------------|------------------------------------|
-------------------------------------|------------------------------------|
--------------5~----------5----4-----|--------------5~-------------5~-----|
--0--0--0--0------0----0----0----3---|--0--0--0--0------0----0--0------0--|


  PM PM PM PM     PM   PM   PM          PM PM PM PM     PM   PM PM    PM  
  S  S  S  S  E   E  S S  S S  Q        S  S  S  S  E   E  S E  S  E  E   
-------------------------------------|-----------------------------------|
-------------------------------------|-----------------------------------|
-------------------------------------|-----------------------------------|
-------------------------------------|-----------------------------------|
--------------5~----------5----3~----|--------------5~-------------5-----|
--0--0--0--0------0----0----0--------|--0--0--0--0------0----0--0-----0--|


  PM PM PM PM     PM   PM   PM          PM PM PM PM     PM   PM PM     PM  
  S  S  S  S  E   E  S S  S S  S E.     S  S  S  S  E   E  S E  S  E   E   
-------------------------------------|------------------------------------|
-------------------------------------|------------------------------------|
-------------------------------------|------------------------------------|
-------------------------------------|------------------------------------|
--------------5~----------5----4-----|--------------5~-------------5~-----|
--0--0--0--0------0----0----0----3---|--0--0--0--0------0----0--0------0--|


  PM PM PM PM                         PM PM PM PM     PM   PM PM    PM  
  S  S  S  S  S S E  Q     S S S S    S  S  S  S  E   E  S E  S  E  E   
-----------------------------------|-----------------------------------|
-----------------------------------|-----------------------------------|
-----------------------------------|-----------------------------------|
-----------------------------------|-----------------------------------|
--------------5---3--L~------------|--------------5~-------------5-----|
--0--0--0--0----0----------3-5-5-3-|--0--0--0--0------0----0--0-----0--|


  PM PM PM PM     PM   PM   PM          PM PM PM PM     PM   PM PM     PM  
  S  S  S  S  E   E  S S  S S  S E.     S  S  S  S  E   E  S E  S  E   E   
-------------------------------------|------------------------------------|
-------------------------------------|------------------------------------|
-------------------------------------|------------------------------------|
-------------------------------------|------------------------------------|
--------------5~----------5----4-----|--------------5~-------------5~-----|
--0--0--0--0------0----0----0----3---|--0--0--0--0------0----0--0------0--|


  PM PM PM PM     PM   PM   PM                                                                    
  S  S  S  S  E   E  S S  S S  Q        W                   W                   W                 
-------------------------------------|-------------------|-------------------|-------------------|
-------------------------------------|-------------------|-------------------|-------------------|
-------------------------------------|-------------------|-------------------|-------------------|
-------------------------------------|-------------------|-------------------|-------------------|
--------------5~----------5----3~----|-------------------|-------------------|-------------------|
--0--0--0--0------0----0----0--------|-------------------|-------------------|-------------------|


  W                   W                   W                   W                   W                 
-------------------|-------------------|-------------------|-------------------|-------------------|
-------------------|-------------------|-------------------|-------------------|-------------------|
-------------------|-------------------|-------------------|-------------------|-------------------|
-------------------|-------------------|-------------------|-------------------|-------------------|
-------------------|-------------------|-------------------|-------------------|-------------------|
-------------------|-------------------|-------------------|-------------------|-------------------|


  W                   W                   W                   W                   W                 
-------------------|-------------------|-------------------|-------------------|-------------------|
-------------------|-------------------|-------------------|-------------------|-------------------|
-------------------|-------------------|-------------------|-------------------|-------------------|
-------------------|-------------------|-------------------|-------------------|-------------------|
-------------------|-------------------|-------------------|-------------------|-------------------|
-------------------|-------------------|-------------------|-------------------|-------------------|


  W                   W                   W                   W                   W                 
-------------------|-------------------|-------------------|-------------------|-------------------|
-------------------|-------------------|-------------------|-------------------|-------------------|
-------------------|-------------------|-------------------|-------------------|-------------------|
-------------------|-------------------|-------------------|-------------------|-------------------|
-------------------|-------------------|-------------------|-------------------|-------------------|
-------------------|-------------------|-------------------|-------------------|-------------------|


  W                   W                   W                   W                 
-------------------|-------------------|-------------------|-------------------|
-------------------|-------------------|-------------------|-------------------|
-------------------|-------------------|-------------------|-------------------|
-------------------|-------------------|-------------------|-------------------|
-------------------|-------------------|-------------------|-------------------|
-------------------|-------------------|-------------------|-------------------|


  W                  
-------------------||
-------------------||
-------------------||
-------------------||
-------------------||
-------------------||



Lead 1

      W                   W                   W                   W                 
D#||-------------------|-------------------|-------------------|-------------------|
A#||-------------------|-------------------|-------------------|-------------------|
F#||-------------------|-------------------|-------------------|-------------------|
C#||-------------------|-------------------|-------------------|-------------------|
G#||-------------------|-------------------|-------------------|-------------------|
D#||-------------------|-------------------|-------------------|-------------------|


  W                   W                   W                   W                   W                 
-------------------|-------------------|-------------------|-------------------|-------------------|
-------------------|-------------------|-------------------|-------------------|-------------------|
-------------------|-------------------|-------------------|-------------------|-------------------|
-------------------|-------------------|-------------------|-------------------|-------------------|
-------------------|-------------------|-------------------|-------------------|-------------------|
-------------------|-------------------|-------------------|-------------------|-------------------|


  W                   W                   W                   W                   W                 
-------------------|-------------------|-------------------|-------------------|-------------------|
-------------------|-------------------|-------------------|-------------------|-------------------|
-------------------|-------------------|-------------------|-------------------|-------------------|
-------------------|-------------------|-------------------|-------------------|-------------------|
-------------------|-------------------|-------------------|-------------------|-------------------|
-------------------|-------------------|-------------------|-------------------|-------------------|


  W                   W                   W                   W                   W                 
-------------------|-------------------|-------------------|-------------------|-------------------|
-------------------|-------------------|-------------------|-------------------|-------------------|
-------------------|-------------------|-------------------|-------------------|-------------------|
-------------------|-------------------|-------------------|-------------------|-------------------|
-------------------|-------------------|-------------------|-------------------|-------------------|
-------------------|-------------------|-------------------|-------------------|-------------------|


  W                   W                   W                   W                 
-------------------|-------------------|-------------------|-------------------|
-------------------|-------------------|-------------------|-------------------|
-------------------|-------------------|-------------------|-------------------|
-------------------|-------------------|-------------------|-------------------|
-------------------|-------------------|-------------------|-------------------|
-------------------|-------------------|-------------------|-------------------|


                                       pick scrape                            
  tr                tr         tr                                             
  H           Q     Q          Q       E             E   S  S   S   S   Q     
----------------------------|------------------------------------------------|
----------------------------|------------------------------------------------|
--7(7)--------9~----7(9)----|--7(9)----x\-----------/x\----12~-12~-12~-12----|
----------------------------|----------x\-----------/x\----12~-12~-12~-12----|
----------------------------|------------------------------------------------|
----------------------------|------------------------------------------------|


   E   E   Q      S  E   S E   S  S     S  S  S   S  E    E  Q     E    E        W                 
------------------------------------|-----------------------------12----------|-------------------|
----------12~----14-12--14----14-12-|-----------------------------15b--15pb~--|-------------------|
---x---x--12~----14-12--14----14-12-|---x--x-14b-12---------------------------|-------------------|
---x---x----------------------------|---x--x--------14~--12-------------------|-------------------|
------------------------------------|-----------------------------------------|-------------------|
------------------------------------|-----------------------------------------|-------------------|


  W                   W                   W                   W                   W                 
-------------------|-------------------|-------------------|-------------------|-------------------|
-------------------|-------------------|-------------------|-------------------|-------------------|
-------------------|-------------------|-------------------|-------------------|-------------------|
-------------------|-------------------|-------------------|-------------------|-------------------|
-------------------|-------------------|-------------------|-------------------|-------------------|
-------------------|-------------------|-------------------|-------------------|-------------------|


  W                   W                   W                   W                   W                 
-------------------|-------------------|-------------------|-------------------|-------------------|
-------------------|-------------------|-------------------|-------------------|-------------------|
-------------------|-------------------|-------------------|-------------------|-------------------|
-------------------|-------------------|-------------------|-------------------|-------------------|
-------------------|-------------------|-------------------|-------------------|-------------------|
-------------------|-------------------|-------------------|-------------------|-------------------|


  W                   W                   W                   W                   W                 
-------------------|-------------------|-------------------|-------------------|-------------------|
-------------------|-------------------|-------------------|-------------------|-------------------|
-------------------|-------------------|-------------------|-------------------|-------------------|
-------------------|-------------------|-------------------|-------------------|-------------------|
-------------------|-------------------|-------------------|-------------------|-------------------|
-------------------|-------------------|-------------------|-------------------|-------------------|


  W                   W                   E  E  E  E  S   S E  E  E   
-------------------|-------------------|-----------------------------|
-------------------|-------------------|--------------------------4--|
-------------------|-------------------|-----2--2--4--4br-L-2--------|
-------------------|-------------------|-----------------------------|
-------------------|-------------------|-----------------------------|
-------------------|-------------------|-----------------------------|


  E  S S E  E  E  S S S S E      E  E  E  E  S   S E  E  E     E  S S E  E  E  S S S S E   
------------------------------|-----------------------------|-----------------------------|
--L--2---2--5--L--4---4-5-----|--------------------------4--|--L--2---2--5--L--4----------|
-------4------------6-----6~--|-----2--2--4--4br-L-2--------|-------4------------6--------|
------------------------------|-----------------------------|----------------------7-6-4--|
------------------------------|-----------------------------|-----------------------------|
------------------------------|-----------------------------|-----------------------------|


  E  E  E  E  S   S E  E  E     E  S S E  E  E  S S S S E      E  E  E  E  S   S E  E  E   
-----------------------------|------------------------------|-----------------------------|
--------------------------4--|--L--2---2--5--L--4---4-5-----|--------------------------4--|
-----2--2--4--4br-L-2--------|-------4------------6-----6~--|-----2--2--4--4br-L-2--------|
-----------------------------|------------------------------|-----------------------------|
-----------------------------|------------------------------|-----------------------------|
-----------------------------|------------------------------|-----------------------------|


  E  S S E  E  E  S S S S E     E  S S Q    S S E  Q        H.             Q      
-----------------------------|--------------------------|------------------------|
--L--2---2--5--L--4----------|--------------------------|------------------------|
-------4------------6--------|--------------------------|------------------------|
----------------------7-6-4--|-----2--------------------|--12b------------14~----|
-----------------------------|-------5-4----4-2---------|------------------------|
-----------------------------|------------------5-------|------------------------|


   Q      S  S  S  S   E     E    E   E       Q        S  S  E   Q      E     S  S  
------------------------------------------|----------------------------------------|
------------------------------------------|----------------------------------------|
------------------12b--Lpb---Lpb-----14b--|---Lpbr----14-12---------------------12-|
--14~----14-12-14-------------------------|-----------------14---L~----14\--/14----|
------------------------------------------|----------------------------------------|
------------------------------------------|----------------------------------------|


                                                       |---3--|                                   
   S  S  S  S  S  S  S  S  Q       S    S  E      E    S  S   S  S  S  S  S  S  S  E   S  S  E    
---------------------------------------17-17--|-------12-----------------------------------------|
--------------12----12-15-15b~----15pb--------|--15b-----15p-12-14-12-14-14----------------------|
--15-12-15-14----15---------------------------|-----------------14-12-14-14-12-14-14-------------|
----------------------------------------------|-----------------------------12-14-14--14-12-12~--|
----------------------------------------------|--------------------------------------------------|
----------------------------------------------|--------------------------------------------------|


   E.    S  S  S  S  S  S  S  S  S  S  E.       H.             Q      
-----------------------------12-------------|------------------------|
--------------15-------12--x----12--x-15b---|--15~-------------------|
--------14--x-----x-14----------------------|------------------x\----|
--12~---------------------------------------|------------------x\----|
--------------------------------------------|------------------------|
--------------------------------------------|------------------------|


     \2/      \5                                                                                 
     H        Q     S   S   S  S     H.            Q       W                   W                 
--<>19---------------------------|----------------------|-------------------|-------------------|
---------------------------------|----------------------|-------------------|-------------------|
------------------------------12-|----------------------|-------------------|-------------------|
---------------------------------|--14~-----------------|-------------------|-------------------|
-------------------12h-13h-14----|----------------------|-------------------|-------------------|
--------------0------------------|----------------------|-------------------|-------------------|


  W                   W                   W                   W                   W                 
-------------------|-------------------|-------------------|-------------------|-------------------|
-------------------|-------------------|-------------------|-------------------|-------------------|
-------------------|-------------------|-------------------|-------------------|-------------------|
-------------------|-------------------|-------------------|-------------------|-------------------|
-------------------|-------------------|-------------------|-------------------|-------------------|
-------------------|-------------------|-------------------|-------------------|-------------------|


  W                   W                   W                   W                   W                 
-------------------|-------------------|-------------------|-------------------|-------------------|
-------------------|-------------------|-------------------|-------------------|-------------------|
-------------------|-------------------|-------------------|-------------------|-------------------|
-------------------|-------------------|-------------------|-------------------|-------------------|
-------------------|-------------------|-------------------|-------------------|-------------------|
-------------------|-------------------|-------------------|-------------------|-------------------|


  W                   W                   W                   W                   W                 
-------------------|-------------------|-------------------|-------------------|-------------------|
-------------------|-------------------|-------------------|-------------------|-------------------|
-------------------|-------------------|-------------------|-------------------|-------------------|
-------------------|-------------------|-------------------|-------------------|-------------------|
-------------------|-------------------|-------------------|-------------------|-------------------|
-------------------|-------------------|-------------------|-------------------|-------------------|


  W                   W                   W                   W                   W                 
-------------------|-------------------|-------------------|-------------------|-------------------|
-------------------|-------------------|-------------------|-------------------|-------------------|
-------------------|-------------------|-------------------|-------------------|-------------------|
-------------------|-------------------|-------------------|-------------------|-------------------|
-------------------|-------------------|-------------------|-------------------|-------------------|
-------------------|-------------------|-------------------|-------------------|-------------------|


  W                   W                   W                   W                   W                 
-------------------|-------------------|-------------------|-------------------|-------------------|
-------------------|-------------------|-------------------|-------------------|-------------------|
-------------------|-------------------|-------------------|-------------------|-------------------|
-------------------|-------------------|-------------------|-------------------|-------------------|
-------------------|-------------------|-------------------|-------------------|-------------------|
-------------------|-------------------|-------------------|-------------------|-------------------|


  W                   W                   W                   W                   W                 
-------------------|-------------------|-------------------|-------------------|-------------------|
-------------------|-------------------|-------------------|-------------------|-------------------|
-------------------|-------------------|-------------------|-------------------|-------------------|
-------------------|-------------------|-------------------|-------------------|-------------------|
-------------------|-------------------|-------------------|-------------------|-------------------|
-------------------|-------------------|-------------------|-------------------|-------------------|


  W                   W                   W                   W                   W                 
-------------------|-------------------|-------------------|-------------------|-------------------|
-------------------|-------------------|-------------------|-------------------|-------------------|
-------------------|-------------------|-------------------|-------------------|-------------------|
-------------------|-------------------|-------------------|-------------------|-------------------|
-------------------|-------------------|-------------------|-------------------|-------------------|
-------------------|-------------------|-------------------|-------------------|-------------------|


  W                   W                   W                   W                   W                 
-------------------|-------------------|-------------------|-------------------|-------------------|
-------------------|-------------------|-------------------|-------------------|-------------------|
-------------------|-------------------|-------------------|-------------------|-------------------|
-------------------|-------------------|-------------------|-------------------|-------------------|
-------------------|-------------------|-------------------|-------------------|-------------------|
-------------------|-------------------|-------------------|-------------------|-------------------|


  W                   W                   W                   W                   W                 
-------------------|-------------------|-------------------|-------------------|-------------------|
-------------------|-------------------|-------------------|-------------------|-------------------|
-------------------|-------------------|-------------------|-------------------|-------------------|
-------------------|-------------------|-------------------|-------------------|-------------------|
-------------------|-------------------|-------------------|-------------------|-------------------|
-------------------|-------------------|-------------------|-------------------|-------------------|


  W                   W                   W                   W                   W                 
-------------------|-------------------|-------------------|-------------------|-------------------|
-------------------|-------------------|-------------------|-------------------|-------------------|
-------------------|-------------------|-------------------|-------------------|-------------------|
-------------------|-------------------|-------------------|-------------------|-------------------|
-------------------|-------------------|-------------------|-------------------|-------------------|
-------------------|-------------------|-------------------|-------------------|-------------------|


  W                   W                   W                   W                   W                 
-------------------|-------------------|-------------------|-------------------|-------------------|
-------------------|-------------------|-------------------|-------------------|-------------------|
-------------------|-------------------|-------------------|-------------------|-------------------|
-------------------|-------------------|-------------------|-------------------|-------------------|
-------------------|-------------------|-------------------|-------------------|-------------------|
-------------------|-------------------|-------------------|-------------------|-------------------|


  W                   W                   W                  
-------------------|-------------------|-------------------||
-------------------|-------------------|-------------------||
-------------------|-------------------|-------------------||
-------------------|-------------------|-------------------||
-------------------|-------------------|-------------------||
-------------------|-------------------|-------------------||



Lead 2

      W                   W                   W                   W                 
D#||-------------------|-------------------|-------------------|-------------------|
A#||-------------------|-------------------|-------------------|-------------------|
F#||-------------------|-------------------|-------------------|-------------------|
C#||-------------------|-------------------|-------------------|-------------------|
G#||-------------------|-------------------|-------------------|-------------------|
D#||-------------------|-------------------|-------------------|-------------------|


  W                   W                   W                   W                   W                 
-------------------|-------------------|-------------------|-------------------|-------------------|
-------------------|-------------------|-------------------|-------------------|-------------------|
-------------------|-------------------|-------------------|-------------------|-------------------|
-------------------|-------------------|-------------------|-------------------|-------------------|
-------------------|-------------------|-------------------|-------------------|-------------------|
-------------------|-------------------|-------------------|-------------------|-------------------|


  W                   W                   W                   W                   W                 
-------------------|-------------------|-------------------|-------------------|-------------------|
-------------------|-------------------|-------------------|-------------------|-------------------|
-------------------|-------------------|-------------------|-------------------|-------------------|
-------------------|-------------------|-------------------|-------------------|-------------------|
-------------------|-------------------|-------------------|-------------------|-------------------|
-------------------|-------------------|-------------------|-------------------|-------------------|


                 >                                                                    
  H        Q     Q        S E  S S S E  S E  S S S E     S E  S S S E  S E  S S S E   
-----------------------|------------------------------|------------------------------|
-----------------------|------------------------------|------------------------------|
-----------------------|--9-9--9-9-9-9--9-9--9-9-9-9--|--9-9--9-9-9-9--9-9--9-9-9-9--|
-----------------------|------------------------------|------------------------------|
-----------------------|------------------------------|------------------------------|
----------------12\----|------------------------------|------------------------------|


  S E  S S S E  S S E  S E.     S E  S S S E  S S E  S E.     S E  S S S E  S S E  S E.   
-----------------------------|-----------------------------|-----------------------------|
-----------------------------|-----------------------------|-----------------------------|
--9-9--9-9-9-9----9-9--9-9---|--9-9--9-9-9-9----9-9--9-9---|--9-9--9-9-9-9----9-9--9-9---|
-----------------------------|-----------------------------|-----------------------------|
-----------------------------|-----------------------------|-----------------------------|
-----------------------------|-----------------------------|-----------------------------|


  S E  S S S E  S S E  S E.     S E  S S S E  S S E  S E.     S E  S S S E  S S E  S E.   
-----------------------------|-----------------------------|-----------------------------|
-----------------------------|-----------------------------|-----------------------------|
--9-9--9-9-9-9----9-9--9-9---|--9-9--9-9-9-9----9-9--9-9---|--9-9--9-9-9-9----9-9--9-9---|
-----------------------------|-----------------------------|-----------------------------|
-----------------------------|-----------------------------|-----------------------------|
-----------------------------|-----------------------------|-----------------------------|


  W                   W                   W                   W                   W                 
-------------------|-------------------|-------------------|-------------------|-------------------|
-------------------|-------------------|-------------------|-------------------|-------------------|
-------------------|-------------------|-------------------|-------------------|-------------------|
-------------------|-------------------|-------------------|-------------------|-------------------|
-------------------|-------------------|-------------------|-------------------|-------------------|
-------------------|-------------------|-------------------|-------------------|-------------------|


  W                   W                   W                   W                   W                 
-------------------|-------------------|-------------------|-------------------|-------------------|
-------------------|-------------------|-------------------|-------------------|-------------------|
-------------------|-------------------|-------------------|-------------------|-------------------|
-------------------|-------------------|-------------------|-------------------|-------------------|
-------------------|-------------------|-------------------|-------------------|-------------------|
-------------------|-------------------|-------------------|-------------------|-------------------|


  W                   W                   W                   W                 
-------------------|-------------------|-------------------|-------------------|
-------------------|-------------------|-------------------|-------------------|
-------------------|-------------------|-------------------|-------------------|
-------------------|-------------------|-------------------|-------------------|
-------------------|-------------------|-------------------|-------------------|
-------------------|-------------------|-------------------|-------------------|


  S E  S S S E  S S E  S E.     S E  S S S E  S S E  S E.     S E  S S S E  S S E  S E.   
-----------------------------|-----------------------------|-----------------------------|
-----------------------------|-----------------------------|-----------------------------|
--9-9--9-9-9-9----9-9--9-9---|--9-9--9-9-9-9----9-9--9-9---|--9-9--9-9-9-9----9-9--9-9---|
-----------------------------|-----------------------------|-----------------------------|
-----------------------------|-----------------------------|-----------------------------|
-----------------------------|-----------------------------|-----------------------------|


  S E  S S S E  S S E  S E.     S E  S S S E  S S E  S E.     S E  S S S E  S S E  S E.   
-----------------------------|-----------------------------|-----------------------------|
-----------------------------|-----------------------------|-----------------------------|
--9-9--9-9-9-9----9-9--9-9---|--9-9--9-9-9-9----9-9--9-9---|--9-9--9-9-9-9----9-9--9-9---|
-----------------------------|-----------------------------|-----------------------------|
-----------------------------|-----------------------------|-----------------------------|
-----------------------------|-----------------------------|-----------------------------|


  S E  S S S E  S S E  S E.     S E  S S S E  S S E  S E.     E   E   E   E   S    S  E  E   E   
-----------------------------|-----------------------------|------------------------------------|
-----------------------------|-----------------------------|--------------------------------16--|
--9-9--9-9-9-9----9-9--9-9---|--9-9--9-9-9-9----9-9--9-9---|-----14--14--16--16br--L-14---------|
-----------------------------|-----------------------------|------------------------------------|
-----------------------------|-----------------------------|------------------------------------|
-----------------------------|-----------------------------|------------------------------------|


   E   S  S  E   E   E   S  S  S  S  E      E   E   E   E   S   S  E  E   E   
-----------------------------------------|-----------------------------------|
---L--14----14--17---L--16----16-17------|-------------------------------16--|
---------16----------------18-------18~--|-----14--14--16--16br-L-14---------|
-----------------------------------------|-----------------------------------|
-----------------------------------------|-----------------------------------|
-----------------------------------------|-----------------------------------|


  E   S  S  E   E  E   S  S  S  S  E     E   E   E   E   S    S  E  E   E   
--------------------------------------|------------------------------------|
--L--14----14--17--L--16--------------|--------------------------------16--|
--------16---------------18-----------|-----14--14--16--16br--L-14---------|
----------------------------19-18-16--|------------------------------------|
--------------------------------------|------------------------------------|
--------------------------------------|------------------------------------|


   E   S  S  E   E   E   S  S  S  S  E      E   E   E   E   S   S  E  E   E   
-----------------------------------------|-----------------------------------|
---L--14----14--17---L--16----16-17------|-------------------------------16--|
---------16----------------18-------18~--|-----14--14--16--16br-L-14---------|
-----------------------------------------|-----------------------------------|
-----------------------------------------|-----------------------------------|
-----------------------------------------|-----------------------------------|


  E   S  S  E   E  E   S  S  S  S  E     E  S S Q    S S E  Q       W                 
--------------------------------------|--------------------------|-------------------|
--L--14----14--17--L--16--------------|--------------------------|-------------------|
--------16---------------18-----------|--------------------------|-------------------|
----------------------------19-18-16--|-----2--------------------|-------------------|
--------------------------------------|-------5-4----4-2---------|-------------------|
--------------------------------------|------------------5-------|-------------------|


  W                   W                   W                   W                   W                 
-------------------|-------------------|-------------------|-------------------|-------------------|
-------------------|-------------------|-------------------|-------------------|-------------------|
-------------------|-------------------|-------------------|-------------------|-------------------|
-------------------|-------------------|-------------------|-------------------|-------------------|
-------------------|-------------------|-------------------|-------------------|-------------------|
-------------------|-------------------|-------------------|-------------------|-------------------|


  W                   W                   W                   W                   W                 
-------------------|-------------------|-------------------|-------------------|-------------------|
-------------------|-------------------|-------------------|-------------------|-------------------|
-------------------|-------------------|-------------------|-------------------|-------------------|
-------------------|-------------------|-------------------|-------------------|-------------------|
-------------------|-------------------|-------------------|-------------------|-------------------|
-------------------|-------------------|-------------------|-------------------|-------------------|


  W                   W                   W                   W                   W                 
-------------------|-------------------|-------------------|-------------------|-------------------|
-------------------|-------------------|-------------------|-------------------|-------------------|
-------------------|-------------------|-------------------|-------------------|-------------------|
-------------------|-------------------|-------------------|-------------------|-------------------|
-------------------|-------------------|-------------------|-------------------|-------------------|
-------------------|-------------------|-------------------|-------------------|-------------------|


  W                   W                   S E  S S S E  S S E  S E.     S E  S S S E  S S E  S E.   
-------------------|-------------------|-----------------------------|-----------------------------|
-------------------|-------------------|-----------------------------|-----------------------------|
-------------------|-------------------|--9-9--9-9-9-9----9-9--9-9---|--9-9--9-9-9-9----9-9--9-9---|
-------------------|-------------------|-----------------------------|-----------------------------|
-------------------|-------------------|-----------------------------|-----------------------------|
-------------------|-------------------|-----------------------------|-----------------------------|


  S E  S S S E  S S E  S E.     S E  S S S E  S S E  S E.     S E  S S S E  S S E  S E.   
-----------------------------|-----------------------------|-----------------------------|
-----------------------------|-----------------------------|-----------------------------|
Добавлено: 16.07.2012
Другие материалы по этой песне:

Страница создана 11.03.2012
http://primanota.ru/winger/like-a-ritual-chords.htm
Привет, Гость.
Предлагаем пройти революционный курс по гитаре.
Подарок от PrimaNota.Ru, забирай!