PrimaNota.ru - самый крупный в мире бесплатный архив песенных текстов, аккордов, табулатур и нот


Winger - Down Incognito - текст песни, таба, бас-таба, видео

Регистрация Запомнить меня
Войти через:  Facebook Google Twitter Vk Yandex Mail.ru

Winger - Down Incognito - текст песни, таба, бас-таба, видео

Печатать
Просмотров: 159
-------------------------------------------------------------------------------
                             DOWN INCOGNITO - Winger
-------------------------------------------------------------------------------

Tabbed by: Isaias Garcia (TexasFury)

Tuning: down a half step (all strings)

Album: Pull (1993)


Lead

      W                   W                   W                   W                 
D#||-------------------|-------------------|-------------------|-------------------|
A#||-------------------|-------------------|-------------------|-------------------|
F#||-------------------|-------------------|-------------------|-------------------|
C#||-------------------|-------------------|-------------------|-------------------|
G#||-------------------|-------------------|-------------------|-------------------|
D#||-------------------|-------------------|-------------------|-------------------|


                               T                      T                  
  H         T   T  T   T   T   T   T   T  T   T   T   T   T   T  T   T   
------------------------------------------------------------------------|
------------------------------------------------------------------------|
-----------12p-10p-9h-10h-12h-13p-12p-10p-9h-10h-12h-13p-12p-10p-9h-10h-|
------------------------------------------------------------------------|
------------------------------------------------------------------------|
------------------------------------------------------------------------|


                      T                      T                             
   T   T  T   T   T   T   T   T  T   T   T   T   T   T  T   T Q     Q      
--------------------------------------------------------------------------|
--------------------------------------------------------------------------|
--12p-10p-9h-10h-12h-13p-12p-10p-9h-10h-12h-13p-12p-10p-9h-10-------------|
--------------------------------------------------------------------------|
--------------------------------------------------------------------------|
-------------------------------------------------------------------12\----|


                             ^    ^                                             
  E  E  E  E  E  E  E  E     Q    E  E  E  E  Q        E  E  E  E  E  E  E  E   
--------------------------|-------------------------|--------------------------|
--------------------------|-------------------------|--------------------------|
-----x--------x-----------|-------------x-----------|-----x--------x-----------|
-----x--------x-----------|-------------x-----------|-----x--------x-----------|
--------7--------7--6-----|--5----2--------7--6~----|--------7--------7--6-----|
--0--------0-----------0--|----------0--------------|--0--------0-----------0--|


  Q     E   E  H           W                   W                   W                 
------------------------|-------------------|-------------------|-------------------|
--9S----8S--7-----------|-------------------|-------------------|-------------------|
--9S----8S--7-----------|-------------------|-------------------|-------------------|
------------------------|-------------------|-------------------|-------------------|
------------------------|-------------------|-------------------|-------------------|
------------------------|-------------------|-------------------|-------------------|


  W                   W                   W                   W                   W                 
-------------------|-------------------|-------------------|-------------------|-------------------|
-------------------|-------------------|-------------------|-------------------|-------------------|
-------------------|-------------------|-------------------|-------------------|-------------------|
-------------------|-------------------|-------------------|-------------------|-------------------|
-------------------|-------------------|-------------------|-------------------|-------------------|
-------------------|-------------------|-------------------|-------------------|-------------------|


  W                   W                   W                   W                   W                 
-------------------|-------------------|-------------------|-------------------|-------------------|
-------------------|-------------------|-------------------|-------------------|-------------------|
-------------------|-------------------|-------------------|-------------------|-------------------|
-------------------|-------------------|-------------------|-------------------|-------------------|
-------------------|-------------------|-------------------|-------------------|-------------------|
-------------------|-------------------|-------------------|-------------------|-------------------|


  W                   W                   W                   W                   W                 
-------------------|-------------------|-------------------|-------------------|-------------------|
-------------------|-------------------|-------------------|-------------------|-------------------|
-------------------|-------------------|-------------------|-------------------|-------------------|
-------------------|-------------------|-------------------|-------------------|-------------------|
-------------------|-------------------|-------------------|-------------------|-------------------|
-------------------|-------------------|-------------------|-------------------|-------------------|


                                                                         ^    ^                  
  W                   H        Q     Q        E  E  E  E  E  E  E  E     Q    E  E  E  E  Q      
-------------------|-----------------------|--------------------------|-------------------------|
-------------------|-----------------------|-----x--------------------|-------------x-----------|
-------------------|-----------------------|-----x--------x-----------|-------------x-----------|
-------------------|-----------------------|--------------x-----------|-------------------------|
-------------------|-----------------------|--------7--------7--6-----|--5----2--------7--6~----|
-------------------|----------------12\----|--0--------0-----------0--|----------0--------------|


                             ^    ^                                             
  E  E  E  E  E  E  E  E     Q    E  E  E  E  Q        Q    E   E   H           
--------------------------|-------------------------|--------------------------|
-----x--------------------|-------------x-----------|--------------------------|
-----x--------x-----------|-------------x-----------|----------10---LS~--------|
--------------x-----------|-------------------------|--5----L--10---LS~--------|
--------7--------7--6-----|--5----2--------7--6~----|--5----L---8---LS~--------|
--0--------0-----------0--|----------0--------------|--3----L------------------|


  Q    E   E   H            Q    E   E   H             Q    E   E  H          
-------------------------|--------------------------|------------------------|
-------------------------|--------------------------|------------------------|
--5----L--10---L~--------|----------10---LS~--------|--5----LS--8--L~--------|
--5----L--10---L~--------|--5----L--10---LS~--------|--5----LS--8--L~--------|
--3----L---8---L~--------|--5----L---8---LS~--------|--3----LS--6--L~--------|
-------------------------|--3----L------------------|------------------------|


  Q    E   E   H             Q    E    E   H            Q    E   E   H          
--------------------------|--------------------------|-------------------------|
--------------------------|--------------------------|-------------------------|
----------10---LS~--------|--5----LS--10---L~--------|----------10---L~--------|
--5----L--10---LS~--------|--5----LS--10---L~--------|--5----L--10---L~--------|
--5----L---8---LS~--------|--3----LS---8---L~--------|--5----L---8---L~--------|
--3----L------------------|--------------------------|--3----L-----------------|


  Q    E  E  H            Q    E  E  H            Q    E   E   H         
-----------------------|-----------------------|------------------------|
-----------------------|-----------------------|------------------------|
--5----L--8--L~--------|----------9--L~--------|----------10---L--------|
--5----L--8--L~--------|----------9--L~--------|----------10---L--------|
--3----L--6--L~--------|----------7--L~--------|-----------8---L--------|
-----------------------|--0----L---------------|--1----L----------------|


  Q    E  S  S Q    E  S   S    H         H            Q    E  E  H          
-----------------------------|----------------------|-----------------------|
----------1h-3-L----L--------|----------------------|-----------------------|
---------------0----L--------|----------------------|----------9--L~--------|
-----------------------3br-L-|--Lb--------L~--------|----------9--L~--------|
-----------------------------|----------------------|----------7--L~--------|
--3----L---------------------|----------------------|--0----L---------------|


  Q    E   E   H           Q    E  E  Q    E  E     W                   W                 
------------------------|-------3----------------|-------------------|-------------------|
------------------------|----------3--L-------3--|-------------------|-------------------|
----------10---L--------|------------------5-----|-------------------|-------------------|
----------10---L--------|------------------------|--5----------------|-------------------|
-----------8---L--------|--3---------------------|-------------------|-------------------|
--1----L----------------|------------------------|-------------------|-------------------|


  W                   W                   W                   W                   W                 
-------------------|-------------------|-------------------|-------------------|-------------------|
-------------------|-------------------|-------------------|-------------------|-------------------|
-------------------|-------------------|-------------------|-------------------|-------------------|
-------------------|-------------------|-------------------|-------------------|-------------------|
-------------------|-------------------|-------------------|-------------------|-------------------|
-------------------|-------------------|-------------------|-------------------|-------------------|


  W                   W                   W                   W                   W                 
-------------------|-------------------|-------------------|-------------------|-------------------|
-------------------|-------------------|-------------------|-------------------|-------------------|
-------------------|-------------------|-------------------|-------------------|-------------------|
-------------------|-------------------|-------------------|-------------------|-------------------|
-------------------|-------------------|-------------------|-------------------|-------------------|
-------------------|-------------------|-------------------|-------------------|-------------------|


                                                     ^    ^                  
  H        Q     Q        E  E  E  E  E  E  E  E     Q    E  E  E  E  Q      
-----------------------|--------------------------|-------------------------|
-----------------------|-----x--------------------|-------------x-----------|
-----------------------|-----x--------x-----------|-------------x-----------|
-----------------------|--------------x-----------|-------------------------|
-----------------------|--------7--------7--6-----|--5----2--------7--6~----|
----------------12\----|--0--------0-----------0--|----------0--------------|


                             ^    ^                                            
  E  E  E  E  E  E  E  E     Q    E  E  E  E  Q        Q    E   E   H          
--------------------------|-------------------------|-------------------------|
-----x--------------------|-------------x-----------|-------------------------|
-----x--------x-----------|-------------x-----------|----------10---L~--------|
--------------x-----------|-------------------------|--5----L--10---L~--------|
--------7--------7--6-----|--5----2--------7--6~----|--5----L---8---L~--------|
--0--------0-----------0--|----------0--------------|--3----L-----------------|


  Q    E   E   H            Q    E   E   H            Q    E  E  H          
-------------------------|-------------------------|-----------------------|
-------------------------|-------------------------|-----------------------|
--5----L--10---L~--------|----------10---L~--------|--5----L--8--L~--------|
--5----L--10---L~--------|--5----L--10---L~--------|--5----L--8--L~--------|
--3----L---8---L~--------|--5----L---8---L~--------|--3----L--6--L~--------|
-------------------------|--3----L-----------------|-----------------------|


  Q    E   E   H            Q    E   E   H            Q    E   E   H          
-------------------------|-------------------------|-------------------------|
-------------------------|-------------------------|-------------------------|
----------10---L~--------|--5----L--10---L~--------|----------10---L~--------|
--5----L--10---L~--------|--5----L--10---L~--------|--5----L--10---L~--------|
--5----L---8---L~--------|--3----L---8---L~--------|--5----L---8---L~--------|
--3----L-----------------|-------------------------|--3----L-----------------|


  Q    E  E  H            Q    E   E   H            Q    E   E   H          
-----------------------|-------------------------|-------------------------|
-----------------------|-------------------------|-------------------------|
--5----L--8--L~--------|----------10---L~--------|--5----L--10---L~--------|
--5----L--8--L~--------|--5----L--10---L~--------|--5----L--10---L~--------|
--3----L--6--L~--------|--5----L---8---L~--------|--3----L---8---L~--------|
-----------------------|--3----L-----------------|-------------------------|


  Q    E   E   H            Q    E  E  H            Q    E   E   H          
-------------------------|-----------------------|-------------------------|
-------------------------|-----------------------|-------------------------|
----------10---L~--------|--5----L--8--L~--------|----------10---L~--------|
--5----L--10---L~--------|--5----L--8--L~--------|--5----L--10---L~--------|
--5----L---8---L~--------|--3----L--6--L~--------|--5----L---8---L~--------|
--3----L-----------------|-----------------------|--3----L-----------------|


  Q    E   E   H            Q    E   E   H            Q    E  E  H            Q     Q    H         
-------------------------|-------------------------|----------------------|-----------------------|
-------------------------|-------------------------|----------------------|-----------------------|
--5----L--10---L~--------|----------10---L~--------|--5----8--8-----------|--12~------------------|
--5----L--10---L~--------|--5----L--10---L~--------|--5----8--8-----------|--12~------------------|
--3----L---8---L~--------|--5----L---8---L~--------|--3----6--6-----------|-----------------------|
-------------------------|--3----L-----------------|----------------------|-----------------------|


  W                   W                   Q    E  E  H           W                 
-------------------|-------------------|----------------------|-------------------|
-------------------|-------------------|----------------------|-------------------|
-------------------|-------------------|----------7-----------|-------------------|
-------------------|-------------------|----------7-----------|-------------------|
-------------------|-------------------|----------5-----------|-------------------|
-------------------|-------------------|----------------------|-------------------|


                                                     ^    ^                  
  H        Q     Q        E  E  E  E  E  E  E  E     Q    E  E  E  E  Q      
-----------------------|--------------------------|-------------------------|
-----------------------|-----x--------------------|-------------x-----------|
-----------------------|-----x--------x-----------|-------------x-----------|
-----------------------|--------------x-----------|-------------------------|
-----------------------|--------7--------7--6-----|--5----2--------7--6~----|
----------------12\----|--0--------0-----------0--|----------0--------------|


                             ^    ^                                             
  E  E  E  E  E  E  E  E     Q    E  E  E  E  Q        E  E  E  E  E  E  E  E   
--------------------------|-------------------------|--------------------------|
-----x--------------------|-------------x-----------|-----x--------------------|
-----x--------x-----------|-------------x-----------|-----x--------x-----------|
--------------x-----------|-------------------------|--------------x-----------|
--------7--------7--6-----|--5----2--------7--6~----|--------7--------7--6-----|
--0--------0-----------0--|----------0--------------|--0--------0-----------0--|


  ^    ^                                               ^    ^                  
  Q    E  E  E  E  Q        E  E  E  E  E  E  E  E     Q    E  E  E  E  Q      
-------------------------|--------------------------|-------------------------|
-------------x-----------|-----x--------------------|-------------x-----------|
-------------x-----------|-----x--------x-----------|-------------x-----------|
-------------------------|--------------x-----------|-------------------------|
--5----2--------7--6~----|--------7--------7--6-----|--5----2--------7--6~----|
----------0--------------|--0--------0-----------0--|----------0--------------|


                             ^    ^                                             
  E  E  E  E  E  E  E  E     Q    E  E  E  E  Q        E  E  E  E  E  E  E  E   
--------------------------|-------------------------|--------------------------|
-----x--------------------|-------------x-----------|-----x--------------------|
-----x--------x-----------|-------------x-----------|-----x--------x-----------|
--------------x-----------|-------------------------|--------------x-----------|
--------7--------7--6-----|--5----2--------7--6~----|--------7--------7--6-----|
--0--------0-----------0--|----------0--------------|--0--------0-----------0--|


  ^    ^                                               ^    ^                   
  Q    E  E  E  E  Q        E  E  E  E  E  E  E  E     Q    E  E  E  E  Q       
-------------------------|--------------------------|-------------------------||
-------------x-----------|-----x--------------------|-------------x-----------||
-------------x-----------|-----x--------x-----------|-------------x-----------||
-------------------------|--------------x-----------|-------------------------||
--5----2--------7--6~----|--------7--------7--6-----|--5----2--------7--6~----||
----------0--------------|--0--------0-----------0--|----------0--------------||



Rhythm - left


      W                   W                   W                   H        Q    Q     
D#||-------------------|-------------------|-------------------|---------------------|
A#||-------------------|-------------------|-------------------|---------------------|
F#||-------------------|-------------------|-------------------|----------------8----|
C#||-------------------|-------------------|-------------------|----------------9----|
G#||-------------------|-------------------|-------------------|---------------------|
D#||-------------------|-------------------|-------------------|---------------------|


  W                   H        Q    Q       W                   H        Q    Q     
-------------------|---------------------|-------------------|---------------------|
-------------------|---------------------|-------------------|---------------------|
-------------------|----------------8----|-------------------|----------------8----|
-------------------|----------------9----|-------------------|----------------9----|
-------------------|---------------------|-------------------|---------------------|
-------------------|---------------------|-------------------|---------------------|


  W                   H        Q    Q       W                   H        Q    Q     
-------------------|---------------------|-------------------|---------------------|
-------------------|---------------------|-------------------|---------------------|
-------------------|----------------8----|-------------------|----------------8----|
-------------------|----------------9----|-------------------|----------------9----|
-------------------|---------------------|-------------------|---------------------|
-------------------|---------------------|-------------------|---------------------|


  W                   H        Q    Q       W                   H        Q    Q     
-------------------|---------------------|-------------------|---------------------|
-------------------|---------------------|-------------------|---------------------|
-------------------|----------------8----|-------------------|----------------8----|
-------------------|----------------9----|-------------------|----------------9----|
-------------------|---------------------|-------------------|---------------------|
-------------------|---------------------|-------------------|---------------------|


  W                   H        Q    Q       W                   W                 
-------------------|---------------------|-------------------|-------------------|
-------------------|---------------------|-------------------|-------------------|
-------------------|----------------8----|-------------------|-------------------|
-------------------|----------------9----|-------------------|-------------------|
-------------------|---------------------|-------------------|-------------------|
-------------------|---------------------|-------------------|-------------------|


  W                   W                   W                   W                   W                 
-------------------|-------------------|-------------------|-------------------|-------------------|
-------------------|-------------------|-------------------|-------------------|-------------------|
-------------------|-------------------|-------------------|-------------------|-------------------|
-------------------|-------------------|-------------------|-------------------|-------------------|
-------------------|-------------------|-------------------|-------------------|-------------------|
-------------------|-------------------|-------------------|-------------------|-------------------|


  W                   W                   H        Q    Q       W                 
-------------------|-------------------|---------------------|-------------------|
-------------------|-------------------|---------------------|-------------------|
-------------------|-------------------|----------------8----|-------------------|
-------------------|-------------------|----------------9----|-------------------|
-------------------|-------------------|---------------------|-------------------|
-------------------|-------------------|---------------------|-------------------|


  H        Q    Q       W                   H        Q    Q       W                 
---------------------|-------------------|---------------------|-------------------|
---------------------|-------------------|---------------------|-------------------|
----------------8----|-------------------|----------------8----|-------------------|
----------------9----|-------------------|----------------9----|-------------------|
---------------------|-------------------|---------------------|-------------------|
---------------------|-------------------|---------------------|-------------------|


  H        Q    Q       W                   W                   W                 
---------------------|-------------------|-------------------|-------------------|
---------------------|-------------------|-------------------|-------------------|
----------------8----|-------------------|-------------------|-------------------|
----------------9----|-------------------|-------------------|-------------------|
---------------------|-------------------|-------------------|-------------------|
---------------------|-------------------|-------------------|-------------------|


  W                   W                   W                   W                   W                 
-------------------|-------------------|-------------------|-------------------|-------------------|
-------------------|-------------------|-------------------|-------------------|-------------------|
-------------------|-------------------|-------------------|-------------------|-------------------|
-------------------|-------------------|-------------------|-------------------|-------------------|
-------------------|-------------------|-------------------|-------------------|-------------------|
-------------------|-------------------|-------------------|-------------------|-------------------|


  W                   W                   W                   W                   W                 
-------------------|-------------------|-------------------|-------------------|-------------------|
-------------------|-------------------|-------------------|-------------------|-------------------|
-------------------|-------------------|-------------------|-------------------|-------------------|
-------------------|-------------------|-------------------|-------------------|-------------------|
-------------------|-------------------|-------------------|-------------------|-------------------|
-------------------|-------------------|-------------------|-------------------|-------------------|


  W                   W                   W                   W                   W                 
-------------------|-------------------|-------------------|-------------------|-------------------|
-------------------|-------------------|-------------------|-------------------|-------------------|
-------------------|-------------------|-------------------|-------------------|-------------------|
-------------------|-------------------|-------------------|-------------------|-------------------|
-------------------|-------------------|-------------------|-------------------|-------------------|
-------------------|-------------------|-------------------|-------------------|-------------------|


  W                   W                   W                   W                   W                 
-------------------|-------------------|-------------------|-------------------|-------------------|
-------------------|-------------------|-------------------|-------------------|-------------------|
-------------------|-------------------|-------------------|-------------------|-------------------|
-------------------|-------------------|-------------------|-------------------|-------------------|
-------------------|-------------------|-------------------|-------------------|-------------------|
-------------------|-------------------|-------------------|-------------------|-------------------|


  W                   W                   H        Q    Q       W                 
-------------------|-------------------|---------------------|-------------------|
-------------------|-------------------|---------------------|-------------------|
-------------------|-------------------|----------------8----|-------------------|
-------------------|-------------------|----------------9----|-------------------|
-------------------|-------------------|---------------------|-------------------|
-------------------|-------------------|---------------------|-------------------|


  H        Q    Q       W                   H        Q    Q       W                 
---------------------|-------------------|---------------------|-------------------|
---------------------|-------------------|---------------------|-------------------|
----------------8----|-------------------|----------------8----|-------------------|
----------------9----|-------------------|----------------9----|-------------------|
---------------------|-------------------|---------------------|-------------------|
---------------------|-------------------|---------------------|-------------------|


  H        Q    Q       W                   W                   W                 
---------------------|-------------------|-------------------|-------------------|
---------------------|-------------------|-------------------|-------------------|
----------------8----|-------------------|-------------------|-------------------|
----------------9----|-------------------|-------------------|-------------------|
---------------------|-------------------|-------------------|-------------------|
---------------------|-------------------|-------------------|-------------------|


  W                   W                   W                   W                   W                 
-------------------|-------------------|-------------------|-------------------|-------------------|
-------------------|-------------------|-------------------|-------------------|-------------------|
-------------------|-------------------|-------------------|-------------------|-------------------|
-------------------|-------------------|-------------------|-------------------|-------------------|
-------------------|-------------------|-------------------|-------------------|-------------------|
-------------------|-------------------|-------------------|-------------------|-------------------|


  W                   W                   W                   W                   W                 
-------------------|-------------------|-------------------|-------------------|-------------------|
-------------------|-------------------|-------------------|-------------------|-------------------|
-------------------|-------------------|-------------------|-------------------|-------------------|
-------------------|-------------------|-------------------|-------------------|-------------------|
-------------------|-------------------|-------------------|-------------------|-------------------|
-------------------|-------------------|-------------------|-------------------|-------------------|


  W                   W                   W                   W                 
-------------------|-------------------|-------------------|-------------------|
-------------------|-------------------|-------------------|-------------------|
-------------------|-------------------|-------------------|-------------------|
-------------------|-------------------|-------------------|-------------------|
-------------------|-------------------|-------------------|-------------------|
-------------------|-------------------|-------------------|-------------------|


  H        Q    Q       W                   H        Q    Q       W                 
---------------------|-------------------|---------------------|-------------------|
---------------------|-------------------|---------------------|-------------------|
----------------8----|-------------------|----------------8----|-------------------|
----------------9----|-------------------|----------------9----|-------------------|
---------------------|-------------------|---------------------|-------------------|
---------------------|-------------------|---------------------|-------------------|


  H        Q    Q       W                   H        Q    Q       W                 
---------------------|-------------------|---------------------|-------------------|
---------------------|-------------------|---------------------|-------------------|
----------------8----|-------------------|----------------8----|-------------------|
----------------9----|-------------------|----------------9----|-------------------|
---------------------|-------------------|---------------------|-------------------|
---------------------|-------------------|---------------------|-------------------|


  H        Q    Q       W                   H        Q    Q       W                 
---------------------|-------------------|---------------------|-------------------|
---------------------|-------------------|---------------------|-------------------|
----------------8----|-------------------|----------------8----|-------------------|
----------------9----|-------------------|----------------9----|-------------------|
---------------------|-------------------|---------------------|-------------------|
---------------------|-------------------|---------------------|-------------------|


  H        Q    Q       W                   H        Q    Q       W                 
---------------------|-------------------|---------------------|-------------------|
---------------------|-------------------|---------------------|-------------------|
----------------8----|-------------------|----------------8----|-------------------|
----------------9----|-------------------|----------------9----|-------------------|
---------------------|-------------------|---------------------|-------------------|
---------------------|-------------------|---------------------|-------------------|


  H        Q    Q       W                   H        Q    Q      
---------------------|-------------------|---------------------||
---------------------|-------------------|---------------------||
----------------8----|-------------------|----------------8----||
----------------9----|-------------------|----------------9----||
---------------------|-------------------|---------------------||
---------------------|-------------------|---------------------||



Rhythm - right

      W                   W                   Q    Q    H           W                 
D#||-------------------|-------------------|---------------------|-------------------|
A#||-------------------|-------------------|---------------------|-------------------|
F#||-------------------|-------------------|---------------------|-------------------|
C#||-------------------|-------------------|--2------------------|-------------------|
G#||-------------------|-------------------|--2------------------|-------------------|
D#||-------------------|-------------------|--0------------------|-------------------|


  W                   H        Q    Q       W                   W                 
-------------------|---------------------|-------------------|-------------------|
-------------------|---------------------|-------------------|-------------------|
-------------------|---------------------|-------------------|-------------------|
-------------------|-----------2---------|-------------------|-------------------|
-------------------|-----------2---------|-------------------|-------------------|
-------------------|-----------0---------|-------------------|-------------------|


  W                   H        Q    Q       W                   W                 
-------------------|---------------------|-------------------|-------------------|
-------------------|---------------------|-------------------|-------------------|
-------------------|---------------------|-------------------|-------------------|
-------------------|-----------2---------|-------------------|-------------------|
-------------------|-----------2---------|-------------------|-------------------|
-------------------|-----------0---------|-------------------|-------------------|


  W                   H        Q    Q       W                   W                 
-------------------|---------------------|-------------------|-------------------|
-------------------|---------------------|-------------------|-------------------|
-------------------|---------------------|-------------------|-------------------|
-------------------|-----------2---------|-------------------|-------------------|
-------------------|-----------2---------|-------------------|-------------------|
-------------------|-----------0---------|-------------------|-------------------|


  W                   H        Q    Q       W                   W                 
-------------------|---------------------|-------------------|-------------------|
-------------------|---------------------|-------------------|-------------------|
-------------------|---------------------|-------------------|-------------------|
-------------------|-----------2---------|-------------------|-------------------|
-------------------|-----------2---------|-------------------|-------------------|
-------------------|-----------0---------|-------------------|-------------------|


  W                   W                   W                   W                   W                 
-------------------|-------------------|-------------------|-------------------|-------------------|
-------------------|-------------------|-------------------|-------------------|-------------------|
-------------------|-------------------|-------------------|-------------------|-------------------|
-------------------|-------------------|-------------------|-------------------|-------------------|
-------------------|-------------------|-------------------|-------------------|-------------------|
-------------------|-------------------|-------------------|-------------------|-------------------|


  W                   Q    Q    H           W                   W                 
-------------------|---------------------|-------------------|-------------------|
-------------------|---------------------|-------------------|-------------------|
-------------------|---------------------|-------------------|-------------------|
-------------------|--2------------------|-------------------|-------------------|
-------------------|--2------------------|-------------------|-------------------|
-------------------|--0------------------|-------------------|-------------------|


  H        Q    Q       W                   W                   W                 
---------------------|-------------------|-------------------|-------------------|
---------------------|-------------------|-------------------|-------------------|
---------------------|-------------------|-------------------|-------------------|
-----------2---------|-------------------|-------------------|-------------------|
-----------2---------|-------------------|-------------------|-------------------|
-----------0---------|-------------------|-------------------|-------------------|


  H        Q    Q       W                   W                   W                 
---------------------|-------------------|-------------------|-------------------|
---------------------|-------------------|-------------------|-------------------|
---------------------|-------------------|-------------------|-------------------|
-----------2---------|-------------------|-------------------|-------------------|
-----------2---------|-------------------|-------------------|-------------------|
-----------0---------|-------------------|-------------------|-------------------|


  W                   W                   W                   W                   W                 
-------------------|-------------------|-------------------|-------------------|-------------------|
-------------------|-------------------|-------------------|-------------------|-------------------|
-------------------|-------------------|-------------------|-------------------|-------------------|
-------------------|-------------------|-------------------|-------------------|-------------------|
-------------------|-------------------|-------------------|-------------------|-------------------|
-------------------|-------------------|-------------------|-------------------|-------------------|


  W                   W                   W                   W                   W                 
-------------------|-------------------|-------------------|-------------------|-------------------|
-------------------|-------------------|-------------------|-------------------|-------------------|
-------------------|-------------------|-------------------|-------------------|-------------------|
-------------------|-------------------|-------------------|-------------------|-------------------|
-------------------|-------------------|-------------------|-------------------|-------------------|
-------------------|-------------------|-------------------|-------------------|-------------------|


  W                   W                   W                   W                   W                 
-------------------|-------------------|-------------------|-------------------|-------------------|
-------------------|-------------------|-------------------|-------------------|-------------------|
-------------------|-------------------|-------------------|-------------------|-------------------|
-------------------|-------------------|-------------------|-------------------|-------------------|
-------------------|-------------------|-------------------|-------------------|-------------------|
-------------------|-------------------|-------------------|-------------------|-------------------|


  W                   W                   W                   W                   W                 
-------------------|-------------------|-------------------|-------------------|-------------------|
-------------------|-------------------|-------------------|-------------------|-------------------|
-------------------|-------------------|-------------------|-------------------|-------------------|
-------------------|-------------------|-------------------|-------------------|-------------------|
-------------------|-------------------|-------------------|-------------------|-------------------|
-------------------|-------------------|-------------------|-------------------|-------------------|


  W                   Q    Q    H           W                   W                 
-------------------|---------------------|-------------------|-------------------|
-------------------|---------------------|-------------------|-------------------|
-------------------|---------------------|-------------------|-------------------|
-------------------|--2------------------|-------------------|-------------------|
-------------------|--2------------------|-------------------|-------------------|
-------------------|--0------------------|-------------------|-------------------|


  H        Q    Q       Q    Q    H           W                   W                 
---------------------|---------------------|-------------------|-------------------|
---------------------|---------------------|-------------------|-------------------|
---------------------|---------------------|-------------------|-------------------|
-----------2---------|--2------------------|-------------------|-------------------|
-----------2---------|--2------------------|-------------------|-------------------|
-----------0---------|--0------------------|-------------------|-------------------|


  H        Q    Q       W                   W                   W                 
---------------------|-------------------|-------------------|-------------------|
---------------------|-------------------|-------------------|-------------------|
---------------------|-------------------|-------------------|-------------------|
-----------2---------|-------------------|-------------------|-------------------|
-----------2---------|-------------------|-------------------|-------------------|
-----------0---------|-------------------|-------------------|-------------------|


  W                   W                   W                   W                   W                 
-------------------|-------------------|-------------------|-------------------|-------------------|
-------------------|-------------------|-------------------|-------------------|-------------------|
-------------------|-------------------|-------------------|-------------------|-------------------|
-------------------|-------------------|-------------------|-------------------|-------------------|
-------------------|-------------------|-------------------|-------------------|-------------------|
-------------------|-------------------|-------------------|-------------------|-------------------|


  W                   W                   W                   W                   W                 
-------------------|-------------------|-------------------|-------------------|-------------------|
-------------------|-------------------|-------------------|-------------------|-------------------|
-------------------|-------------------|-------------------|-------------------|-------------------|
-------------------|-------------------|-------------------|-------------------|-------------------|
-------------------|-------------------|-------------------|-------------------|-------------------|
-------------------|-------------------|-------------------|-------------------|-------------------|


  W                   W                   W                   Q    Q    H         
-------------------|-------------------|-------------------|---------------------|
-------------------|-------------------|-------------------|---------------------|
-------------------|-------------------|-------------------|---------------------|
-------------------|-------------------|-------------------|--2------------------|
-------------------|-------------------|-------------------|--2------------------|
-------------------|-------------------|-------------------|--0------------------|


  W                   W                   H        Q    Q       W                 
-------------------|-------------------|---------------------|-------------------|
-------------------|-------------------|---------------------|-------------------|
-------------------|-------------------|---------------------|-------------------|
-------------------|-------------------|-----------2---------|-------------------|
-------------------|-------------------|-----------2---------|-------------------|
-------------------|-------------------|-----------0---------|-------------------|


  W                   W                   H        Q    Q       W                 
-------------------|-------------------|---------------------|-------------------|
-------------------|-------------------|---------------------|-------------------|
-------------------|-------------------|---------------------|-------------------|
-------------------|-------------------|-----------2---------|-------------------|
-------------------|-------------------|-----------2---------|-------------------|
-------------------|-------------------|-----------0---------|-------------------|


  W                   W                   H        Q    Q       W                 
-------------------|-------------------|---------------------|-------------------|
-------------------|-------------------|---------------------|-------------------|
-------------------|-------------------|---------------------|-------------------|
-------------------|-------------------|-----------2---------|-------------------|
-------------------|-------------------|-----------2---------|-------------------|
-------------------|-------------------|-----------0---------|-------------------|


  W                   W                   H        Q    Q       W                 
-------------------|-------------------|---------------------|-------------------|
-------------------|-------------------|---------------------|-------------------|
-------------------|-------------------|---------------------|-------------------|
-------------------|-------------------|-----------2---------|-------------------|
-------------------|-------------------|-----------2---------|-------------------|
-------------------|-------------------|-----------0---------|-------------------|


  W                   W                   H        Q    Q      
-------------------|-------------------|---------------------||
-------------------|-------------------|---------------------||
-------------------|-------------------|---------------------||
-------------------|-------------------|-----------2---------||
-------------------|-------------------|-----------2---------||
-------------------|-------------------|-----------0---------||



Acoustic - left

      W                   W                   W                   W                 
D#||-------------------|-------------------|-------------------|-------------------|
A#||-------------------|-------------------|-------------------|-------------------|
F#||-------------------|-------------------|-------------------|-------------------|
C#||-------------------|-------------------|-------------------|-------------------|
G#||-------------------|-------------------|-------------------|-------------------|
D#||-------------------|-------------------|-------------------|-------------------|


  W                   W                   W                   W                   W                 
-------------------|-------------------|-------------------|-------------------|-------------------|
-------------------|-------------------|-------------------|-------------------|-------------------|
-------------------|-------------------|-------------------|-------------------|-------------------|
-------------------|-------------------|-------------------|-------------------|-------------------|
-------------------|-------------------|-------------------|-------------------|-------------------|
-------------------|-------------------|-------------------|-------------------|-------------------|


  W                   W                   W                   W                   W                 
-------------------|-------------------|-------------------|-------------------|-------------------|
-------------------|-------------------|-------------------|-------------------|-------------------|
-------------------|-------------------|-------------------|-------------------|-------------------|
-------------------|-------------------|-------------------|-------------------|-------------------|
-------------------|-------------------|-------------------|-------------------|-------------------|
-------------------|-------------------|-------------------|-------------------|-------------------|


  W                   W                   W                   W                 
-------------------|-------------------|-------------------|-------------------|
-------------------|-------------------|-------------------|-------------------|
-------------------|-------------------|-------------------|-------------------|
-------------------|-------------------|-------------------|-------------------|
-------------------|-------------------|-------------------|-------------------|
-------------------|-------------------|-------------------|-------------------|


  ^       ^              ^       ^          ^     ^       ^              ^       ^            
  Q    E  E  H           Q    E  E  Q    E  E     Q    E  E  H           Q    E  E  H         
--3----L--1--L--------|----------1--L----L--3--|--3----L--1--L--------|--0----L--------------|
--3----L--1--L--------|--5----L--1--L----L--3--|--3----L--1--L--------|--1----L--8--L--------|
--4----L--2--L--------|--5----L--2--L----L--4--|--4----L--2--L--------|--0----L--8--L--------|
--5----L--3--L--------|--5----L--3--L----L--5--|--5----L--3--L--------|--2----L--8--L--------|
--5----L--3--L--------|--3----L--3--L----L--5--|--5----L--3--L--------|--3----L--6--L--------|
--3----L--1--L--------|----------1--L----L--3--|--3----L--1--L--------|----------------------|


  ^       ^              ^    ^  ^          v     ^       ^              ^                   
  Q    E  E  H           Q    E  E  Q    E  E     Q    E  E  H           Q    Q    H         
--3----L--1--L--------|----------1--L----L--3--|--3----L--1--L--------|---------------------|
--3----L--1--L--------|--5----5--1--L----L--3--|--3----L--1--L--------|--5------------------|
--4----L--2--L--------|--5----5--2--L----L--4--|--4----L--2--L--------|--5------------------|
--5----L--3--L--------|--5----5--3--L----L--5--|--5----L--3--L--------|--5------------------|
--5----L--3--L--------|--3----3--3--L----L--5--|--5----L--3--L--------|--3------------------|
--3----L--1--L--------|----------1--L----L--3--|--3----L--1--L--------|---------------------|


  W                   W                   W                   W                   W                 
-------------------|-------------------|-------------------|-------------------|-------------------|
-------------------|-------------------|-------------------|-------------------|-------------------|
-------------------|-------------------|-------------------|-------------------|-------------------|
-------------------|-------------------|-------------------|-------------------|-------------------|
-------------------|-------------------|-------------------|-------------------|-------------------|
-------------------|-------------------|-------------------|-------------------|-------------------|


  W                   W                   W                   Q    E  E  H         
-------------------|-------------------|-------------------|--3----L--1--L--------|
-------------------|-------------------|-------------------|--3----L--1--L--------|
-------------------|-------------------|-------------------|--4----L--2--L--------|
-------------------|-------------------|-------------------|--5----L--3--L--------|
-------------------|-------------------|-------------------|--5----L--3--L--------|
-------------------|-------------------|-------------------|--3----L--1--L--------|


  Q    E  E  Q    E  E     Q    E  E  H           Q    E  E  H           Q    E  E  H         
----------1--L----L--3--|--3----L--1--L--------|--0----L--------------|--3----L--1--L--------|
--5----L--1--L----L--3--|--3----L--1--L--------|--1----L--8--L--------|--3----L--1--L--------|
--5----L--2--L----L--4--|--4----L--2--L--------|--0----L--8--L--------|--4----L--2--L--------|
--5----L--3--L----L--5--|--5----L--3--L--------|--2----L--8--L--------|--5----L--3--L--------|
--3----L--3--L----L--5--|--5----L--3--L--------|--3----L--6--L--------|--5----L--3--L--------|
----------1--L----L--3--|--3----L--1--L--------|----------------------|--3----L--1--L--------|


  Q    E  E  Q    E  E     Q    E  E  H           Q    E  E  H           Q    E  E  H         
----------1--L----L--3--|--3----L--1--L--------|----------------------|----------0--L--------|
--5----L--1--L----L--3--|--3----L--1--L--------|--5----L--8--L--------|----------0--L--------|
--5----L--2--L----L--4--|--4----L--2--L--------|--5----L--8--L--------|----------0--L--------|
--5----L--3--L----L--5--|--5----L--3--L--------|--5----L--8--L--------|----------2--L--------|
--3----L--3--L----L--5--|--5----L--3--L--------|--3----L--6--L--------|----------2--L--------|
----------1--L----L--3--|--3----L--1--L--------|----------------------|--0----L--------------|


  Q    E  E  H           E  S S E  E  E  S S E  E     E  S S E  E  E  S S E  E   
----------1--1--------|-----3-3-3--------3-3-3-----|-----3-3-3--------3-3-3-----|
----------1--1--------|-----3-3-3--3-----3-3-3--3--|-----3-3-3--3-----3-3-3--3--|
----------2--2--------|------------2------------2--|------------2------------2--|
----------3--3--------|--5------------5------------|--5------------5------------|
----------3--3--------|--5------------5------------|--5------------5------------|
--1----L--------------|--3------------3------------|--3------------3------------|


  Q    E  E  H           Q    E  E  H           E  S S E  E  E  S S E  E   
----------0--L--------|----------1--1--------|-----3-3-3--------3-3-3-----|
----------0--L--------|----------1--1--------|-----1-1-1--1-----1-1-1--1--|
----------0--L--------|----------2--2--------|------------0------------0--|
----------2--L--------|----------3--3--------|----------------------------|
----------2--L--------|----------3--3--------|--3------------3------------|
--0----L--------------|--1----L--------------|----------------------------|


  E  S S E  E  E  S S E  E     Q    E  E  H           Q    E  E  Q    E  E     Q    E  E  H         
-----3-3-3--------3-3-3-----|--3----L--1--L--------|----------1--L----L--3--|--3----L--1--L--------|
-----1-1-1--1-----1-1-1--1--|--3----L--1--L--------|--5----L--1--L----L--3--|--3----L--1--L--------|
------------0------------0--|--4----L--2--L--------|--5----L--2--L----L--4--|--4----L--2--L--------|
----------------------------|--5----L--3--L--------|--5----L--3--L----L--5--|--5----L--3--L--------|
--3------------3------------|--5----L--3--L--------|--3----L--3--L----L--5--|--5----L--3--L--------|
----------------------------|--3----L--1--L--------|----------1--L----L--3--|--3----L--1--L--------|


  E  S S E  E  E  S S E  E     Q    E  E  H           Q    E  E  Q    E  E     Q    E  E  H         
-----3-3-3--------3-3-3-----|--3----L--1--L--------|----------1--L----L--3--|--3----L--1--L--------|
-----1-1-1--1-----1-1-1--1--|--3----L--1--L--------|--5----L--1--L----L--3--|--3----L--1--L--------|
------------0------------0--|--4----L--2--L--------|--5----L--2--L----L--4--|--4----L--2--L--------|
----------------------------|--5----L--3--L--------|--5----L--3--L----L--5--|--5----L--3--L--------|
--3------------3------------|--5----L--3--L--------|--3----L--3--L----L--5--|--5----L--3--L--------|
----------------------------|--3----L--1--L--------|----------1--L----L--3--|--3----L--1--L--------|


  E  S S E  E  E  E  E  E     W                   W                   W                 
-----3-3-3--------3--3--3--|-------------------|-------------------|-------------------|
-----1-1-1--1-----1--1--1--|-------------------|-------------------|-------------------|
------------0-----0--0--0--|-------------------|-------------------|-------------------|
---------------------------|-------------------|-------------------|-------------------|
--3------------3-----------|-------------------|-------------------|-------------------|
---------------------------|-------------------|-------------------|-------------------|


  W                   W                   W                   W                   W                 
-------------------|-------------------|-------------------|-------------------|-------------------|
-------------------|-------------------|-------------------|-------------------|-------------------|
-------------------|-------------------|-------------------|-------------------|-------------------|
-------------------|-------------------|-------------------|-------------------|-------------------|
-------------------|-------------------|-------------------|-------------------|-------------------|
-------------------|-------------------|-------------------|-------------------|-------------------|


  Q    E  E  H           Q    E  E  Q    E  E     Q    E  E  H           Q    E  E  H         
--3----L--1--L--------|----------1--L----L--3--|--3----L--1--L--------|--0----L--------------|
--3----L--1--L--------|--5----L--1--L----L--3--|--3----L--1--L--------|--1----L--8--L--------|
--4----L--2--L--------|--5----L--2--L----L--4--|--4----L--2--L--------|--0----L--8--L--------|
--5----L--3--L--------|--5----L--3--L----L--5--|--5----L--3--L--------|--2----L--8--L--------|
--5----L--3--L--------|--3----L--3--L----L--5--|--5----L--3--L--------|--3----L--6--L--------|
--3----L--1--L--------|----------1--L----L--3--|--3----L--1--L--------|----------------------|


  Q    E  E  H           Q    E  E  Q    E  E     Q    E  E  H           Q    E  E  H         
--3----L--1--L--------|----------1--L----L--3--|--3----L--1--L--------|----------------------|
--3----L--1--L--------|--5----L--1--L----L--3--|--3----L--1--L--------|--5----L--8--L--------|
--4----L--2--L--------|--5----L--2--L----L--4--|--4----L--2--L--------|--5----L--8--L--------|
--5----L--3--L--------|--5----L--3--L----L--5--|--5----L--3--L--------|--5----L--8--L--------|
--5----L--3--L--------|--3----L--3--L----L--5--|--5----L--3--L--------|--3----L--6--L--------|
--3----L--1--L--------|----------1--L----L--3--|--3----L--1--L--------|----------------------|


  Q    E  E  H           Q    E  E  Q    E  E     Q    E  E  H           Q    E  E  H         
--3----L--1--L--------|----------1--L----L--3--|--3----L--1--L--------|--0----L--------------|
--3----L--1--L--------|--5----L--1--L----L--3--|--3----L--1--L--------|--1----L--8--L--------|
--4----L--2--L--------|--5----L--2--L----L--4--|--4----L--2--L--------|--0----L--8--L--------|
--5----L--3--L--------|--5----L--3--L----L--5--|--5----L--3--L--------|--2----L--8--L--------|
--5----L--3--L--------|--3----L--3--L----L--5--|--5----L--3--L--------|--3----L--6--L--------|
--3----L--1--L--------|----------1--L----L--3--|--3----L--1--L--------|----------------------|


  Q    E  E  H           Q    E  E  Q    E  E     Q    E  E  H           Q    E  E  H         
--3----L--1--L--------|----------1--L----L--3--|--3----L--1--L--------|----------------------|
--3----L--1--L--------|--5----L--1--L----L--3--|--3----L--1--L--------|--5----8--8-----------|
--4----L--2--L--------|--5----L--2--L----L--4--|--4----L--2--L--------|--5----8--8-----------|
--5----L--3--L--------|--5----L--3--L----L--5--|--5----L--3--L--------|--5----8--8-----------|
--5----L--3--L--------|--3----L--3--L----L--5--|--5----L--3--L--------|--3----6--6-----------|
--3----L--1--L--------|----------1--L----L--3--|--3----L--1--L--------|----------------------|


  W                   W                   W                   W                   W                 
-------------------|-------------------|-------------------|-------------------|-------------------|
-------------------|-------------------|-------------------|-------------------|-------------------|
-------------------|-------------------|-------------------|-------------------|-------------------|
-------------------|-------------------|-------------------|-------------------|-------------------|
-------------------|-------------------|-------------------|-------------------|-------------------|
-------------------|-------------------|-------------------|-------------------|-------------------|


  W                   W                   W                   W                   W                 
-------------------|-------------------|-------------------|-------------------|-------------------|
-------------------|-------------------|-------------------|-------------------|-------------------|
-------------------|-------------------|-------------------|-------------------|-------------------|
-------------------|-------------------|-------------------|-------------------|-------------------|
-------------------|-------------------|-------------------|-------------------|-------------------|
-------------------|-------------------|-------------------|-------------------|-------------------|


  W                   W                   W                   W                   W                 
-------------------|-------------------|-------------------|-------------------|-------------------|
-------------------|-------------------|-------------------|-------------------|-------------------|
-------------------|-------------------|-------------------|-------------------|-------------------|
-------------------|-------------------|-------------------|-------------------|-------------------|
-------------------|-------------------|-------------------|-------------------|-------------------|
-------------------|-------------------|-------------------|-------------------|-------------------|


  W                   W                   W                   W                 
-------------------|-------------------|-------------------|-------------------|
-------------------|-------------------|-------------------|-------------------|
-------------------|-------------------|-------------------|-------------------|
Добавлено: 22.05.2012
Другие материалы по этой песне:

Страница создана 19.04.2012
http://primanota.ru/winger/down-incognito-chords.htm
Привет, Гость.
Предлагаем пройти революционный курс по гитаре.
Подарок от PrimaNota.Ru, забирай!