PrimaNota.ru - самый крупный в мире бесплатный архив песенных текстов, аккордов, табулатур и нот


Wingenfelder - Mensch Paul - аккорды и текст, видео

Регистрация Запомнить меня
Войти через:  Facebook Google Twitter Vk Yandex Mail.ru

Wingenfelder - Mensch Paul - аккорды и текст, видео

Печатать
Просмотров: 104
Mensch Paul
Wingenfelder
Mensch Paul - Wingenfelder

http://wingenfelder.de

Akkorde und Intro bereitgestellt von Sandra und Luca (Sandra: Anfängerin, Luca: Fortgeschrittener).
Wir haben keine Ahnung von Akkorde/Tabs schreiben. Aber wir geben unser Bestes, damit jeder
das Lied irgendwie nachvollziehen kann.
Gerne kann auch korrigiert/verbessert werden.

Tuning: Standardtuning

Capo 5

Chords:
G
Em7
Dsus4
Cadd9
D


Intro:
(falls zu schwer, kann auch der tiefe Basston weggelassen werden)

  G                       Em7                     Dsus4                   Cadd9
e|-----------|-----------|-----------|-----------|-----------|-----------|------------|------------|
B|-----3-----|-----3-----|-----3-----|-----3-----|------3----|-----3-----|------3-----|------3-----|
G|---0---2-0-|---0-------|---0---2-0-|---0-------|----0---2-0|---0-------|----0---2-0-|----0-------| 2x
D|-4---------|-4-----4-4-|-4---------|-4-----4-4-|--4--------|-4-----4-4-|--4---------|--4-----4-4-|
A|-----------|-----------|-----------|-----------|--5--------|-5---------|--3---------|--3---------|
E|-3---------|-3---------|-0---------|-0---------|-----------|-----------|------------|------------|

Vers:

G
Mensch Paul, wie wir damals gebrannt haben 
Em7
immer voll auf die 12, und die Angst verbannt ham
Dsus4
und all diese Mythen, von Schnaps und Tüten
Cadd9
alle warn wahr ( alle warn wahr ) 


G
Mensch Paul, wie du immer gesagt hast:
Em7
"Live fast die young", Und dann leise gefragt hast
Dsus4                                                   Cadd9
"Glaubst du eigentlich irgendwann sind wir alle am Arsch ?" 


           Em7                        Dsus4
und ich hab Stunden geweint, als ich an deinem Grab stand 
         Cadd9                      Dsus4
hab dich 2 Tage vorher an meinem Fenster gesehen 
Em7                  Dsus4
und du hast gemeint, du wärst dicht bis zum Anschlag
         Cadd9                    Dsus4                 D
hättst dein Vater gefunden - und das Leben wär schön 


                        G                                Em7
und wir suchten die Freiheit
Dsus4
und man sagt ja die Hoffnung stirbt zuletzt,
Cadd9
aber du warst die Hoffnung und wo bist du jetzt
       Em7                Dsus4          Cadd9
Und die Alten sagen: Die letzten beißen die Hunde
            
da fallen wir nicht drauf rein,
         Em7           Dsus4
denn wir wissen es ganz genau:
Cadd9                  Cadd9
Die Ersten werden die Letzten sein

Und das sind wir nicht ! 

   G                       Em7                     Dsus4                   Cadd9
e|-----------|-----------|-----------|-----------|-----------|-----------|------------|------------|
B|-----3-----|-----3-----|-----3-----|-----3-----|------3----|-----3-----|------3-----|------3-----|
G|---0---2-0-|---0-------|---0---2-0-|---0-------|----0---2-0|---0-------|----0---2-0-|----0-------|
D|-4---------|-4-----4-4-|-4---------|-4-----4-4-|--4--------|-4-----4-4-|--4---------|--4-----4-4-|
A|-----------|-----------|-----------|-----------|--5--------|-5---------|--3---------|--3---------|
E|-3---------|-3---------|-0---------|-0---------|-----------|-----------|------------|------------|

Und das sind wir nicht!
Und das sind wir nicht!
Und das sind wir nicht!

Vers:

G
Mensch Paul,wenn die Sonne aufgeht
         Em7
Bleiben wir alle schön im Bett, bis der nächste draufgeht
Dsus4
drehen uns noch mal um
                       Cadd9
und saufen uns die Zukunft nett 

G
hey Paul,was wir alles verpasst haben
Em7
jede Menge Geld das wir sinnlos verprasst haben
Dsus4                                          Cadd9
ist egal, doch die Zeit holen wir im Leben niemals wieder ein 

      Em7
Wir ham überhaupt nicht verstanden
   Dsus4
Was damals passiert ist,
        Cadd9                       Dsus4        
Nur das nichts mehr so sein wird wie es früher mal war

Em7
Irgendwas kam abhanden
Dsus4
was nicht repariert ist
Cadd9
haben es mit dir begraben,
Dsus4                     D
vor all den Jahren 


                        G                                Em7
und wir suchten die Freiheit
Dsus4
und man sagt ja die Hoffnung stirbt zuletzt,
Cadd9
aber du warst die Hoffnung und wo bist du jetzt
Em7                     Dsus4                   Cadd9
Und die Alten sagen: Die letzten beißen die Hunde
              
da fallen wir nicht drauf rein,
           Em7            Dsus4 D
denn wir wissen es ganz genau:
Cadd9                               Em7    Dsus4
Die Ersten werden die Letzten sein

Cadd9                               Em7    Dsus4  
Die Ersten werden die Letzten sein
Cadd9
Die Ersten werden die Letzten sein

Und das sind wir nicht!

   G                       Em7                     Dsus4                   Cadd9
e|-----------|-----------|-----------|-----------|-----------|-----------|------------|------------|
B|-----3-----|-----3-----|-----3-----|-----3-----|------3----|-----3-----|------3-----|------3-----|
G|---0---2-0-|---0-------|---0---2-0-|---0-------|----0---2-0|---0-------|----0---2-0-|----0-------| 2x
D|-4---------|-4-----4-4-|-4---------|-4-----4-4-|--4--------|-4-----4-4-|--4---------|--4-----4-4-|
A|-----------|-----------|-----------|-----------|--5--------|-5---------|--3---------|--3---------|
E|-3---------|-3---------|-0---------|-0---------|-----------|-----------|------------|------------|
Добавлено: 03.01.2016
Другие материалы по этой песне:
  • Аккорды и текст

Страница создана 03.01.2016
http://primanota.ru/wingenfelder/mensch-paul-chords.htm
Привет, Гость.
Предлагаем пройти революционный курс по гитаре.
Подарок от PrimaNota.Ru, забирай!