PrimaNota.ru - самый крупный в мире бесплатный архив песенных текстов, аккордов, табулатур и нот


Wing Ding Dong - King Kwang - таба, видео

Регистрация Запомнить меня
Войти через:  Facebook Google Twitter Vk Yandex Mail.ru

Wing Ding Dong - King Kwang - таба, видео

Печатать
Просмотров: 38
E--0---2-3----------------------------|
B-------------------------------------|
G-----------4-4-4---------------------|
D-----------2-2-2----------2p0---0----|
A-----------2-2-2------3-------3------|
E--0---2-3-----------3---3------------|

E------x-x--x-x--x-x--x-x--x-x--x-x---|
B------0-0--0-0--0-0--0-0--0-0--0-0---|
G------0-0--0-0--0-0--0-0--0-0--0-0---|
D------x-x--x-x--x-x--x-x--x-x--x-x---|
A------9-5--9-5--9-5--9-5--9-5--9-5---|
E------7-3--7-3--7-3--7-3--7-3--7-3---|

E------0-0-0-0-0-0-0-0-0-0-0-0-x-x----|
B------0-0-0-0-0-0-0-0-0-0-0-0-x-x----|
G------0-0-0-0-0-0-0-0-0-0-0-0-x-x----|
D------2-5-5-5-5-7-7-7-7-2-2-2-x-x----|
A------2-3-3-3-3-5-5-5-5-2-2-2-x-x----|
E------0-x-x-x-x-x-x-x-x-0-0-0-x-x----|
Добавлено: 03.12.2015
Другие материалы по этой песне:
  • Аккорды и текст

Страница создана 03.12.2015
http://primanota.ru/wing-ding-dong/king-kwang-chords.htm
Привет, Гость.
Предлагаем пройти революционный курс по гитаре.
Подарок от PrimaNota.Ru, забирай!