PrimaNota.ru - самый крупный в мире бесплатный архив песенных текстов, аккордов, табулатур и нот


Wine From Tears - Let Me In - таба, видео

Регистрация Запомнить меня
Войти через:  Facebook Google Twitter Vk Yandex Mail.ru

Wine From Tears - Let Me In - таба, видео

Печатать
Просмотров: 152
-------------------------------------------------------------------------------
                             Let Me In - Wine From Tears
-------------------------------------------------------------------------------
I achieved to find by ear this beautiful solo (the one which comes after the acoustic part)
I think it's right

C |---------------------------------------------------------------------------|
G |---------------------------------------------------------------------------|
D#|--------------------------6-4-4-6------------------------------------------|
A#|-4-7-4-6--6-7-7-9-4-7-4-6---------4-7-4-6-6-7-7-7-7-7-6-2-4-7b-2-4---------|
F |---------------------------------------------------------------------------|
A#|---------------------------------------------------------------------------|

The part above is played two times, then :

C |---------------------------------------------------------------------------|
G |-7-10-7-9-9-10-10-12-7-10-7-9-9-10-10-12-7-10-7-9-9-10-10------------------|
D#|---------------------------------------------------------------------------|
A#|---------------------------------------------------------------------------|
F |---------------------------------------------------------------------------|
A#|---------------------------------------------------------------------------|

C |---------------------------------------------------------------------------|
G |--10-10-10-9-5-7-9b-5-7----------------------------------------------------|
D#|---------------------------------------------------------------------------|
A#|---------------------------------------------------------------------------|
F |---------------------------------------------------------------------------|
A#|---------------------------------------------------------------------------|

Play these two parts above two times, then :

C |---------------------------------------------------------------------------|
G |-7-10-7-9--7h9h10-9h10h12-10h12h14-15-7-10-7-9-10-12-14-7-10-7-9-----------|
D#|---------------------------------------------------------------------------|
A#|---------------------------------------------------------------------------|
F |---------------------------------------------------------------------------|
A#|---------------------------------------------------------------------------|

C |---------------------------------------------------------------------------|
G |-9-------------------------------------------------------------------------|
D#|---9-9-9-9h11-11-9h11-11-11-11\--------------------------------------------|
A#|---------------------------------------------------------------------------|
F |---------------------------------------------------------------------------|
A#|---------------------------------------------------------------------------|

Done !

************************************

| /   slide up
| \   slide down
| h   hammer-on
| p   pull-off
| ~   vibrato
| +   harmonic
| x   Mute note
| b   Bend
| pb  Pre-bend
| br  Bend release
| pbr Pre-bend release
| brb Bend release bend

************************************
Добавлено: 07.08.2015
Другие материалы по этой песне:
  • Аккорды и текст

Страница создана 07.08.2015
http://primanota.ru/wine-from-tears/let-me-in-chords.htm
Привет, Гость.
Предлагаем пройти революционный курс по гитаре.
Подарок от PrimaNota.Ru, забирай!