PrimaNota.ru - самый крупный в мире бесплатный архив песенных текстов, аккордов, табулатур и нот


Winds Of Plague - The Great Stone War - текст песни, таба, видео

Регистрация Запомнить меня
Войти через:  Facebook Google Twitter Vk Yandex Mail.ru

Winds Of Plague - The Great Stone War - текст песни, таба, видео

Печатать
Просмотров: 138
"The Great Stone War" by Winds of Plague
Tabbed by Matt Lummus. video at http://www.youtube.com/watch?v=crDesn5Q70I&feature=related


E-------------------------------------------------------------------------------------|
B-------------------------------------------------------------------------------------|
G-------------------------------------------------------------------------------------|
D--6-3-2-3-2------------------------------------------6-3-2-3-2-----------------------|
A--6-3-2-3-2------------------------------------(X8)--6-3-2-3-2-----------------------|
E--4-1-0-1-0--0000-0-0000-0-0000-0000-0---------------4-1-0-1-0-----------------------|

E------------------------------------------------------------------------|
B------------------------------------------------------------------------|
G------------------------------------------------------------------------|
D-9--/10/7/9----7/6-3-3-6------------------------------------------------|
A-x----x-x-x----x-x-x-x-x--8800------------------------------------------|
E-7000/8/5/7--005/4-1-10477----44----------------------------------------|

E---------------------------------------------------------------------------|
B-----------------------------------------------------(X2)------------------|
G---------------------------------------------------------------------------|
D-9--/10/7/9----7/6-3-3-6---------9---10/7/9----9/10-13-13-14/16/14/10------|
A-x----x-x-x----x-x-x-x-x--8800---x----x-x-x----x-x--x--x---x--x--x-x-------|
E-7000/8/5/7--005/4-1-10477----44-7000-8/5/7--007/8--11-11-12/14/12/8-------|

E-------------------------------------------------------------------------|
B-------------------------------------------------------------------------|
G----------------------------------------------11-12-12-------------------|
D--------------------6/7---10-7-6-3-------------x--x-x--------------------|
A--------------------x-x---10-7-6-3------------67/10/7---77663366332320---|
E-0070507040001410-004/5-00-8/5/4/1-00807011070--------00-----------------|

E------------------------------------------------------------------------|
B------------------------------------------------------------------------|
G----------------------------------------------11-12-12------------------|
D-------------------6/7---10-7-6-3-------------x--x-x--------------------|
A-------------------x-x---10-7-6-3------------67/10/7---77663366332233---|
E-070507040001410-004/5-00-8/5/4/1-00807011070--------00-----------------|

E--------------------------------------------------------------------------|
B--------------------------------------------------------------------------|
G--------------------------------------------------------------------------|
D--------------------------------------------------------------------------|
A-22-----------------------------------------------------------------------|
E---4411441100-------------------------------------------------------------|

E-----------------------------------------------------------------------|
B-----------------------------------------------------------------------|
G-----------------------------------------------------------------------|
D-------------------------------------------77663/6----(X2)-------------|
A-3-2-332-2--3-2-332-2--3-2-332-2--33333333-77663/6---------------------|
E-1-0-110-0--1-0-110-0--1-0-110-0--11111111-55441/4---------------------|

E----------------------------------------------------------------------|
B----------------------------------------------------------------------|
G----------------------------------------------------------------------|
D----------------------------------------------------------------------|
A-2-22-22--2-22-22--22-22-222-2-22--------(X4)-----HAHROOH!!!----------|
E-1-11-11--1-11-11--11-11-111-1-11-------------------------------------|

E------------------------------------------------------------------------|
B------------------------------------------------------------------------|
G------------------------------------------------------------------------|
D------------------------------------------------------------------------|
A-2-22-22--2-22-22--22-22-222-2-22--------(X4)---------------------------|
E-1-11-11--1-11-11--11-11-111-1-11---------------------------------------|

E---------------------------------------------------------------------------|
B----------------(X2)-------------------------------------------------------|
G------------------------------------------------9/12/9/8/5/4---------------|
D----------------10/9/7/6/3/6/7/6/3--------------x--x-x-x-x-x-763-----------|
A-----------------x-x-x-x-x-x-x-x-x--------------7/10/7/6/3/2-763-----------|
E-0-0012001100000-8/7/5/4/1/4/5/4/10-001200110000-------------541-----------|

E------------------------------------------------------------------------|
B------------------------------------------------------------------------|
G------------------------------------------------------------------------|
D-------------------13/10/9/7/9------------------------------------------|
A--------------------x-x-x-x-x------(X3)---------------------------------|
E-70070080000000070011/8/7/5/7-00----------------------------------------|

E-----------------------------------------------------------------------|
B-----------------------------------------------------------------------|
G-----------------------------------------------------------------------|
D-------------------13/10/9/7/9/7/6/3/6/7/6/33--------------------------|
A--------------------x-x-x-x-x-x-x-x-x--x-x-xx--------------------------|
E-70070080000000070011/8/7/5/7/5/4/1/4-/5/4/11--------------------------|

E-----------------------------------------------------------------------|
B-----------------------------------------------------------------------|
G-----------------------------------------------------------------------|
D-------------------------------------------77663/6----(X2)-------------|
A-3-2-332-2--3-2-332-2--3-2-332-2--33333333-77663/6---------------------|
E-1-0-110-0--1-0-110-0--1-0-110-0--11111111-55441/4---------------------|

E----------------------------------------------------------------------|
B-----------------------------------------------------(X2)-------------|
G----------------------------------------------------------------------|
D-9--/10/7/9----7/6-3-3-6---------9---10/7/9----9/10-13-13-14/16/14/10-|
A-x----x-x-x----x-x-x-x-x--8800---x----x-x-x----x-x--x--x---x--x--x-x--|
E-7000/8/5/7--005/4-1-10477----44-7000-8/5/7--007/8--11-11-12/14/12/8--|

E-------------------------------------------------------------------------|
B-------------------------------------------------------------------------|
G----------------------------------------------11-12-12-------------------|
D--------------------6/7---10-7-6-3-------------x--x-x--------------------|
A--------------------x-x---10-7-6-3------------67/10/7---77663366332320---|
E-0070507040001410-004/5-00-8/5/4/1-00807011070--------00-----------------|

E------------------------------------------------------------------------|
B------------------------------------------------------------------------|
G----------------------------------------------11-12-12------------------|
D-------------------6/7---10-7-6-3-------------x--x-x--------------------|
A-------------------x-x---10-7-6-3------------67/10/7---77663366332233---|
E-070507040001410-004/5-00-8/5/4/1-00807011070--------00-----------------|

E--------------------------------------------------------------------------|
B--------------------------------------------------------------------------|
G--------------------------------------------------------------------------|
D--------------------------------------------------------------------------|
A-22-----------------------------------------------------------------------|
E---4411441100-------------------------------------------------------------|

E------------------------------------------------------------------------|
B------------------------------------------------------------------------|
G------------------------------------------------------------------------|
D-------------------13/10/9/7/9------------------------------------------|
A--------------------x-x-x-x-x------(X3)---------------------------------|
E-70070080000000070011/8/7/5/7-00----------------------------------------|

E------------------------------------------------------------------------|
B------------------------------------------------------------------------|
G------------------------------------------------------------------------|
D------------------------------------------------------------------------|
A-----------------------------(Repeat Until end)-------------------------|
E-00-000000--000000-000000-----------------------------------------------|
Добавлено: 21.06.2012
Другие материалы по этой песне:

Страница создана 04.05.2012
http://primanota.ru/winds-of-plague/the-great-stone-war-chords.htm
Привет, Гость.
Предлагаем пройти революционный курс по гитаре.
Подарок от PrimaNota.Ru, забирай!