PrimaNota.ru - самый крупный в мире бесплатный архив песенных текстов, аккордов, табулатур и нот


Windir - Dance Of Mortal Lust - текст песни, таба, видео

Регистрация Запомнить меня
Войти через:  Facebook Google Twitter Vk Yandex Mail.ru

Windir - Dance Of Mortal Lust - текст песни, таба, видео

Печатать
Просмотров: 144
#------------------------------------PLEASE  NOTE-----------------------------------------------#
#This file is the author's own work and represents their interpretation of the #
#song. You may only use this file for private study, scholarship, or research#
#-----------------------------------------------------------------------------------------------#

G: Windir - Dance Of Mortal Lust

Tabbed Wendsday, Jan 30  2008


Band   Windir
Album: 1184
Song:  Dance Of Mortal Lust

Transcribed By: Elathen
Email:         ningalia87@yahoo.com


. - palm mute / - slide up to
 - slide down to ~ - vibrato
h - hammer on p - pull off
, - slight palm mute [] - first time only
" " tremolo note <> - Trill

Suffixes for bend
f - full bend h - half bend
ph - pinched harmonic q - quarter bend
t - tap bend * - see comment
^ - Hold bend r - release bend
x – Staccato ~ - vibrato bend

Tuning E A D G B E

Riff 1
|----------------------------------|
|----------------------------------|
|----------------------------------|
|----------------------------------|
|--3-3-3--2-2-2--------------------|
|--.-.-.--.-.-.---5-5-5--4-4-4-----|
                  . . .  . . .    x6
Fill 1
|---------------------|
|---------------------|
|---------------------|
|---------------------|
|---10-/9--/7--\10----|
|---8--/7--/5--\8-----|
                     x1
Riff 3a
|-----------------------------------|
|-----------------------------------|
|------5----2---5---4---2---4---5---|
|--2----"---"---"---"---"---"---"---|
|--"--------------------------------|
|-----------------------------------|
                                   x2
Riff 3b
|--------------------------------------------|
|--------------------------------------------|
|--------------------------------------------|
|--7--8---7--/5--------4-------5"--4"--------|
|--5--6---5--/3---7"---2---7"--3"--2"---7"---|
|--"--"---"---"---5"---"---5"-----------5"---|
                                            x1
Play Riff 3 x 2

Play Riff 3b x 1

Riff 4
|-----------------------------------|
|-----------------------------------|
|-----------------------------------|
|-----------------------------------|
|--3--2---------------2-------------|
|--"--"---5"---4"--5--"---5"--4-"---|
   .  .   .    .   .  .   .   .    x2
Riff 5
|--------------------------------|---------------------------------|
|--------------------------------|---------------------------------|
|--------------------------------|---------------------------------|
|--5--4---2-------2--4---2--3----|------2--3--2-------3-------2----|
|--"--"---"---5---"--"---"--"----|--5---"--"--"---5---"---5---"----|
|-------------"------------------|--"-------------"-------"--------|
                                x1                                x1
Play Riff 3a x 2\
                  x2
Play Riff 3b x 1/

Riff 6
|-------------------------------------------------|
|--5-------------------------5--------------------|
|------5-------5-4-----4-5-------5------5-4-------|
|----------7--------7----------------7--------7---|
|-------------------------------------------------|
|-------------------------------------------------|
                                                 x1
Riff 6b
|------------------------------------------|
|--3---5-3---------------------------------|
|-----------5-------4------5-4-------------|
|---------------7-------6--------7---------|
|------------------------------------------|
|------------------------------------------|
                                          x2
Fill 2    Riff 8
|--------||----------------------------------------------------|
|--------||----------------------------------------------------|
|--------||----------------------------------------------------|
|--7--4--||--9--------9--------------------------------9-------|
|--5--2--||--7---9"---7---9"--10"--9"---10"---10---9---7--9----|
|--------||--"---7"---"---7"--8"---7"---8"----8----7------7----|
                                                              x4
After second time w/ Lead

Riff 8,  Gtr2
|------3--------------------3---------------|
|--5------7--5---7--5---5------7--5---7-----|
|-------------------------------------------|
|-------------------------------------------|
|-------------------------------------------|
|-------------------------------------------|

------------------------------------|
--5^-------------------5--4---------|
-------4^--5---5--4-----------------|
------------------------------------|
------------------------------------|
------------------------------------|
                                   x2
Riff 9              2nd ending         3rd ending
|----------------|-------------------|---------------------|
|----------------|-------------------|---------------------|
|----------------|--10-9--7---9--10--|---10-9--10----------|
|--9-8--9-8--9---|--8--7--5---7--8---|---8--7--8----10-----|
|--7-6--7-6--7---|--"--"--"---"--"---|---"--"--"----8------|
|--"-"--"-"--"---|-------------------|--------------"------|
                                                          x4
Play Fill 2 x 1

Play Riff 8 x 6

Play Riff 9 x 2

Play Riff 3a x 2\
                  x2
Play Riff 3b x 1/

Play Riff 6 x 1

Play Riff 6b x 2

Play Riff 4 x 2\
                 x2
Play Riff 5 x 1/

Outro chord
|----------|
|--3^------|
|--2^------|
|----------|
|----------|
|----------|
Добавлено: 17.05.2012
Другие материалы по этой песне:
  • Аккорды и текст

Страница создана 17.05.2012
http://primanota.ru/windir/dance-of-mortal-lust-chords.htm
Привет, Гость.
Предлагаем пройти революционный курс по гитаре.
Подарок от PrimaNota.Ru, забирай!