PrimaNota.ru - самый крупный в мире бесплатный архив песенных текстов, аккордов, табулатур и нот


Windir - Arntor Ein Windir - текст песни, таба, видео

Регистрация Запомнить меня
Войти через:  Facebook Google Twitter Vk Yandex Mail.ru

Windir - Arntor Ein Windir - текст песни, таба, видео

Печатать
Просмотров: 118
Band:  Windir
Album: Arntor
Song:  Arntor, ein Windir

.  - palm mute           /  - slide up to
\  - slide down to       ~  - vibrato
h  - hammer on           b  - Bend
p  - pull off            Suffixes for bend
t  - tap                 f  - full bend    h - half bend
ph - pinched harmonic    q  - quarter bend t - tap bend
*  - see comment         ^  - Hold bend    r release bend
x  - Stuccatto           ~  - vibrato bend
,  - slight palm mute    () - ghost note, sustained note
"  - tremolo note        <> - Trill

Tunning E A D G B E

Lead Guitar




E||--------------------------|------------------------|-----------------------|
B||--8----7-----10----11--8--|--------------8----7----|--10--------11----8----|
G||----------7---------------|--8--------8------------|-----------------------|
D||--------------------------|-------10---------------|-----------------------|
A||--------------------------|------------------------|-----------------------|
E||--------------------------|------------------------|-----------------------|



----------------------|----------------------------|
--11----7----8--------|--15----13--11--13----10----|
----------------------|----------------------------|
----------------------|----------------------------|
----------------------|----------------------------|
----------------------|----------------------------|



----------------------------|----------------------------|
--11--13--11----------------|--15----13--11--13----10----|
----------------12----------|----------------------------|
----------------------12----|----------------------------|
----------------------------|----------------------------|
----------------------------|----------------------------|



----------------------------|--------------------------|
--11------11----------------|--8----7-----10----11--8--|
------12------12------------|----------7---------------|
------------------12--------|--------------------------|
----------------------------|--------------------------|
----------------------------|--------------------------|



------------------------|-----------------------|----------------------|
--------------8----7----|--10--------11----8----|--11----7----8--------|
--8--------8------------|-----------------------|----------------------|
-------10---------------|-----------------------|----------------------|
------------------------|-----------------------|----------------------|
------------------------|-----------------------|----------------------|



--------------------------|------------------------|-----------------------|
--8----7-----10----11--8--|--------------8----7----|--10--------11----8----|
----------7---------------|--8--------8------------|-----------------------|
--------------------------|-------10---------------|-----------------------|
--------------------------|------------------------|-----------------------|
--------------------------|------------------------|-----------------------|



----------------------|----------------------------|
--11----7----8--------|--15----13--11--13----10----|
----------------------|----------------------------|
----------------------|----------------------------|
----------------------|----------------------------|
----------------------|----------------------------|



----------------------------|----------------------------|
--11--13--11----------------|--15----13--11--13----10----|
----------------12----------|----------------------------|
----------------------12----|----------------------------|
----------------------------|----------------------------|
----------------------------|----------------------------|



----------------------------|--------------------------|
--11------11----------------|--8----7-----10----11--8--|
------12------12------------|----------7---------------|
------------------12--------|--------------------------|
----------------------------|--------------------------|
----------------------------|--------------------------|



------------------------|-----------------------|----------------------|
--------------8----7----|--10--------11----8----|--11----7----8--------|
--8--------8------------|-----------------------|----------------------|
-------10---------------|-----------------------|----------------------|
------------------------|-----------------------|----------------------|
------------------------|-----------------------|----------------------|



-------------------------|--------------------------|
--8----7-----10----13----|--10----8--8--13----10----|
----------7--------------|--------------------------|
-------------------------|--------------------------|
-------------------------|--------------------------|
-------------------------|--------------------------|



------------------------------|-------------------------|
--10----12--13--15----8-10-8--|--11----10-8-7--8--------|
------------------------------|-------------------------|
------------------------------|-------------------------|
------------------------------|-------------------------|
------------------------------|-------------------------|



------------------------|----------------------------|
--15--------13----10----|--11----15--13--11----10----|
------------------------|----------------------------|
------------------------|----------------------------|
------------------------|----------------------------|
------------------------|----------------------------|



--------------------------|--------------------------|-------------------------|
--15------16--13----10----|--11----15--13--15--------|--8----7-----10----13----|
--------------------------|--------------------------|----------7--------------|
--------------------------|--------------------------|-------------------------|
--------------------------|--------------------------|-------------------------|
--------------------------|--------------------------|-------------------------|



--------------------------|------------------------------|
--10----8--8--13----10----|--10----12--13--15----8-10-8--|
--------------------------|------------------------------|
--------------------------|------------------------------|
--------------------------|------------------------------|
--------------------------|------------------------------|



-------------------------|-------------------------|--------------------------|
--11----10-8-7--8--------|--8----7-----10----13----|--10----8--8--13----10----|
-------------------------|----------7--------------|--------------------------|
-------------------------|-------------------------|--------------------------|
-------------------------|-------------------------|--------------------------|
-------------------------|-------------------------|--------------------------|



------------------------------|-------------------------|
--10----12--13--15----8-10-8--|--11----10-8-7--8--------|
------------------------------|-------------------------|
------------------------------|-------------------------|
------------------------------|-------------------------|
------------------------------|-------------------------|



------------------------|----------------------------|
--15--------13----10----|--11----15--13--11----10----|
------------------------|----------------------------|
------------------------|----------------------------|
------------------------|----------------------------|
------------------------|----------------------------|



--------------------------|--------------------------|-------------------------|
--15------16--13----10----|--11----15--13--15--------|--8----7-----10----13----|
--------------------------|--------------------------|----------7--------------|
--------------------------|--------------------------|-------------------------|
--------------------------|--------------------------|-------------------------|
--------------------------|--------------------------|-------------------------|



--------------------------|------------------------------|
--10----8--8--13----10----|--10----12--13--15----8-10-8--|
--------------------------|------------------------------|
--------------------------|------------------------------|
--------------------------|------------------------------|
--------------------------|------------------------------|



-------------------------|----------|
--11----10-8-7--8--------|----------|
-------------------------|----------|
-------------------------|----------|
-------------------------|----------|
-------------------------|----------|



--------------------10--10--8-8-8--10------------|
--8--8-8-8-8-8--11---------------------10-10-10--|
-------------------------------------------------|
-------------------------------------------------|
-------------------------------------------------|
-------------------------------------------------|



--8---------6---------------------------|
-----8-8-8-----8-8-8--10--7-----8-------|
-----------------------------7-------7--|
----------------------------------------|
----------------------------------------|
----------------------------------------|



--------------------10--10--8-8-8--10------------|
--8--8-8-8-8-8--11---------------------10-10-10--|
-------------------------------------------------|
-------------------------------------------------|
-------------------------------------------------|
-------------------------------------------------|



--8---------6-------------------------|
-----8-8-8-----8-8-8--10--7-----8-----|
-----------------------------7--------|
--------------------------------------|
--------------------------------------|
--------------------------------------|



|---------------------10--10--8-8-8--10------------|
|---8--8-8-8-8-8--11---------------------10-10-10--|
|*-------------------------------------------------|
|*-------------------------------------------------|
|--------------------------------------------------|
|--------------------------------------------------|



--8---------6---------------------------|
-----8-8-8-----8-8-8--10--7-----8-------|
-----------------------------7-------7--|
----------------------------------------|
----------------------------------------|
----------------------------------------|



--------------------10--10--8-8-8--10------------|
--8--8-8-8-8-8--11---------------------10-10-10--|
-------------------------------------------------|
-------------------------------------------------|
-------------------------------------------------|
-------------------------------------------------|



--8---------6--------------------------||
-----8-8-8-----8-8-8--10--7-----8------||
-----------------------------7--------*||
--------------------------------------*||
---------------------------------------||
---------------------------------------||



---------------------10--10--8-8-8--10------------|
---8--8-8-8-8-8--11---------------------10-10-10--|
*-------------------------------------------------|
*-------------------------------------------------|
--------------------------------------------------|
--------------------------------------------------|



--8---------6---------------------------|
-----8-8-8-----8-8-8--10--7-----8-------|
-----------------------------7-------7--|
----------------------------------------|
----------------------------------------|
----------------------------------------|



--------------------10--10--8-8-8--10------------|
--8--8-8-8-8-8--11---------------------10-10-10--|
-------------------------------------------------|
-------------------------------------------------|
-------------------------------------------------|
-------------------------------------------------|



--8---------6--------------------------||
-----8-8-8-----8-8-8--10--7-----8------||
-----------------------------7--------*||
--------------------------------------*||
---------------------------------------||
---------------------------------------||



-----------------------------------13----|
---11----11--11--11----11----14----------|
*----------------------------------------|
*----------------------------------------|
-----------------------------------------|
-----------------------------------------|



--13----11----11----13----------------|--11----------------9----------------|
--------------------------14----14----|--------11----11---------11----11----|
--------------------------------------|-------------------------------------|
--------------------------------------|-------------------------------------|
--------------------------------------|-------------------------------------|
--------------------------------------|-------------------------------------|



---------------------------------------||
--13----10----------11-----------------||
--------------10--------------10--10--*||
--------------------------------------*||
---------------------------------------||
---------------------------------------||



-----------------------------------13----|
---11----11--11--11----11----14----------|
*----------------------------------------|
*----------------------------------------|
-----------------------------------------|
-----------------------------------------|



--13----11----11----13----------------|--11----------------9----------------|
--------------------------14----14----|--------11----11---------11----11----|
--------------------------------------|-------------------------------------|
--------------------------------------|-------------------------------------|
--------------------------------------|-------------------------------------|
--------------------------------------|-------------------------------------|



---------------------------------------||--------------------------------------|
--13----10----------11-----------------||--13----10----------11--------10------|
--------------10--------------10--10--*||--------------10------------------10--|
--------------------------------------*||--------------------------------------|
---------------------------------------||--------------------------------------|
---------------------------------------||--------------------------------------|



|-----------------------------13----13----|
|---14----14--14--14----14----------------|
|*----------------------------------------|
|*----------------------------------------|
|-----------------------------------------|
|-----------------------------------------|



--13----14----14----13----------------|--11----------------9----------------|
--------------------------14----14----|--------11----11---------11----11----|
--------------------------------------|-------------------------------------|
--------------------------------------|-------------------------------------|
--------------------------------------|-------------------------------------|
--------------------------------------|-------------------------------------|



---------------------------------------||
--13----10----------11--------10-------||
--------------10------------------10--*||
--------------------------------------*||
---------------------------------------||
---------------------------------------||



-----------------------------13----13----|
---14----14--14--14----14----------------|
*----------------------------------------|
*----------------------------------------|
-----------------------------------------|
-----------------------------------------|



--13----14----14----13----------------|--11----------------9----------------|
--------------------------14----14----|--------11----11---------11----11----|
--------------------------------------|-------------------------------------|
--------------------------------------|-------------------------------------|
--------------------------------------|-------------------------------------|
--------------------------------------|-------------------------------------|


                                       3x
---------------------------------------||
--13----10----------11--------10-------||
--------------10------------------10--*||
--------------------------------------*||
---------------------------------------||
---------------------------------------||



--11----------------9------------------|------------------------------|------|
--------11----11-------11--11----11----|--13----10----------11--------|------|
---------------------------------------|--------------10--------------|------|
---------------------------------------|------------------------------|------|
---------------------------------------|------------------------------|------|
---------------------------------------|------------------------------|------|



------|------|------|------|------|------|------||-------|------|------|
------|------|------|------|------|------|------||-------|------|------|
------|------|------|------|------|------|------||*------|------|------|
------|------|------|------|------|------|------||*------|------|------|
------|------|------|------|------|------|------||-------|------|------|
------|------|------|------|------|------|------||-------|------|------|


                                      3x
-------||-------|------|------|-------||------|-------------------------|
-------||-------|------|------|-------||------|--8----7-----10----13----|
------*||*------|------|------|------*||------|----------7--------------|
------*||*------|------|------|------*||------|-------------------------|
-------||-------|------|------|-------||------|-------------------------|
-------||-------|------|------|-------||------|-------------------------|



--------------------------|------------------------------|
--10----8--8--13----10----|--10----12--13--15----8-10-8--|
--------------------------|------------------------------|
--------------------------|------------------------------|
--------------------------|------------------------------|
--------------------------|------------------------------|



-------------------------|------------------------|----------------------------|
--11----10-8-7--8--------|--15--------13----10----|--11----15--13--11----10----|
-------------------------|------------------------|----------------------------|
-------------------------|------------------------|----------------------------|
-------------------------|------------------------|----------------------------|
-------------------------|------------------------|----------------------------|



--------------------------|--------------------------|-------------------------|
--15------16--13----10----|--11----15--13--15--------|--8----7-----10----13----|
--------------------------|--------------------------|----------7--------------|
--------------------------|--------------------------|-------------------------|
--------------------------|--------------------------|-------------------------|
--------------------------|--------------------------|-------------------------|



--------------------------|------------------------------|
--10----8--8--13----10----|--10----12--13--15----8-10-8--|
--------------------------|------------------------------|
--------------------------|------------------------------|
--------------------------|------------------------------|
--------------------------|------------------------------|



-------------------------|------------------------------|
--11----10-8-7--8--------|--10----12--13--15----8-10-8--|
-------------------------|------------------------------|
-------------------------|------------------------------|
-------------------------|------------------------------|
-------------------------|------------------------------|



-------------------------|------------------|------------------|
--10b---10-8-7--8--------|------------------|------------------|
-------------------------|------------------|------------------|
-------------------------|------------------|------------------|
-------------------------|------------------|------------------|
-------------------------|------------------|------------------|



------------------|------------------||
------------------|------------------||
------------------|------------------||
------------------|------------------||
------------------|------------------||
------------------|------------------||

Rhythm Guitar




E||------------------------------------------------------------------|
B||------------------------------------------------------------------|
G||------------------------------------------------------------------|
D||--5-5-5-5-5-5-5-5-5-5-5-5-5-5-5-5-7-7-7-7-7-7-7-7-8-8-8-8-8-8-8-8-|
A||------------------------------------------------------------------|
E||------------------------------------------------------------------|



------------------------------------------------------------------|
------------------------------------------------------------------|
------------------------------------------------------------------|
--5-5-5-5-5-5-5-5-5-5-5-5-5-5-5-5-7-7-7-7-7-7-7-7-7-7-7-7-7-7-7-7-|
------------------------------------------------------------------|
------------------------------------------------------------------|



--------------------------------------------------------------------------|
--------------------------------------------------------------------------|
--------------------------------------------------------------------------|
--7-7-7-7-7-7-7-7-7-7-7-7-7-7-7-7-8-8-8-8-8-8-8-8-10-10-10-10-10-10-10-10-|
--------------------------------------------------------------------------|
--------------------------------------------------------------------------|



--------------------------------------------------------------------------|
--------------------------------------------------------------------------|
--------------------------------------------------------------------------|
--8-8-8-8-8-8-8-8-10-10-10-10-10-10-10-10-7-7-7-7-7-7-7-7-7-7-7-7-7-7-7-7-|
--------------------------------------------------------------------------|
--------------------------------------------------------------------------|



------------------------------------------------------------------|
------------------------------------------------------------------|
------------------------------------------------------------------|
--8-8-8-8-8-8-8-8-8-8-8-8-8-8-8-8-7-7-7-7-7-7-7-7-7-7-7-7-7-7-7-7-|
------------------------------------------------------------------|
------------------------------------------------------------------|



--------------------------------------------------------------------------|
--------------------------------------------------------------------------|
--------------------------------------------------------------------------|
--8-8-8-8-8-8-8-8-8-8-8-8-8-8-8-8-12-12-12-12-12-12-12-12-7-7-7-7-7-7-7-7-|
--------------------------------------------------------------------------|
--------------------------------------------------------------------------|



------------------------------------------------------------------|
------------------------------------------------------------------|
------------------------------------------------------------------|
--8-8-8-8-8-8-8-8-8-8-8-8-8-8-8-8-7-7-7-7-7-7-7-7-7-7-7-7-7-7-7-7-|
------------------------------------------------------------------|
------------------------------------------------------------------|



------------------------------------------------------------------|
------------------------------------------------------------------|
------------------------------------------------------------------|
--8-8-8-8-8-8-8-8-8-8-8-8-8-8-8-8-7-7-7-7-7-7-7-7-7-7-7-7-7-7-7-7-|
------------------------------------------------------------------|
------------------------------------------------------------------|



------------------------------------------------------------------|
------------------------------------------------------------------|
------------------------------------------------------------------|
--5-5-5-5-5-5-5-5-5-5-5-5-5-5-5-5-7-7-7-7-7-7-7-7-8-8-8-8-8-8-8-8-|
------------------------------------------------------------------|
------------------------------------------------------------------|



------------------------------------------------------------------|
------------------------------------------------------------------|
------------------------------------------------------------------|
--5-5-5-5-5-5-5-5-5-5-5-5-5-5-5-5-7-7-7-7-7-7-7-7-7-7-7-7-7-7-7-7-|
------------------------------------------------------------------|
------------------------------------------------------------------|



--------------------------------------------------------------------------|
--------------------------------------------------------------------------|
--------------------------------------------------------------------------|
--7-7-7-7-7-7-7-7-7-7-7-7-7-7-7-7-8-8-8-8-8-8-8-8-10-10-10-10-10-10-10-10-|
--------------------------------------------------------------------------|
--------------------------------------------------------------------------|



--------------------------------------------------------------------------|
--------------------------------------------------------------------------|
--------------------------------------------------------------------------|
--8-8-8-8-8-8-8-8-10-10-10-10-10-10-10-10-7-7-7-7-7-7-7-7-7-7-7-7-7-7-7-7-|
--------------------------------------------------------------------------|
--------------------------------------------------------------------------|



------------------------------------------------------------------|
------------------------------------------------------------------|
------------------------------------------------------------------|
--5-5-5-5-5-5-5-5-5-5-5-5-5-5-5-5-7-7-7-7-7-7-7-7-8-8-8-8-8-8-8-8-|
------------------------------------------------------------------|
------------------------------------------------------------------|



------------------------------------------------------------------|
------------------------------------------------------------------|
------------------------------------------------------------------|
--5-5-5-5-5-5-5-5-5-5-5-5-5-5-5-5-7-7-7-7-7-7-7-7-7-7-7-7-7-7-7-7-|
------------------------------------------------------------------|
------------------------------------------------------------------|



--------------------------------------------------------------------------|
--------------------------------------------------------------------------|
--------------------------------------------------------------------------|
--7-7-7-7-7-7-7-7-7-7-7-7-7-7-7-7-8-8-8-8-8-8-8-8-10-10-10-10-10-10-10-10-|
--------------------------------------------------------------------------|
--------------------------------------------------------------------------|



--------------------------------------------------------------------------|
--------------------------------------------------------------------------|
--------------------------------------------------------------------------|
--8-8-8-8-8-8-8-8-10-10-10-10-10-10-10-10-7-7-7-7-7-7-7-7-7-7-7-7-7-7-7-7-|
--------------------------------------------------------------------------|
--------------------------------------------------------------------------|



------------------------------------------------------------------|
------------------------------------------------------------------|
------------------------------------------------------------------|
--8-8-8-8-8-8-8-8-8-8-8-8-8-8-8-8-7-7-7-7-7-7-7-7-7-7-7-7-7-7-7-7-|
------------------------------------------------------------------|
------------------------------------------------------------------|



--------------------------------------------------------------------------|
--------------------------------------------------------------------------|
--------------------------------------------------------------------------|
--8-8-8-8-8-8-8-8-8-8-8-8-8-8-8-8-12-12-12-12-12-12-12-12-7-7-7-7-7-7-7-7-|
--------------------------------------------------------------------------|
--------------------------------------------------------------------------|



------------------------------------------------------------------|
------------------------------------------------------------------|
------------------------------------------------------------------|
--8-8-8-8-8-8-8-8-8-8-8-8-8-8-8-8-7-7-7-7-7-7-7-7-7-7-7-7-7-7-7-7-|
------------------------------------------------------------------|
------------------------------------------------------------------|



------------------------------------------------------------------|
------------------------------------------------------------------|
------------------------------------------------------------------|
--8-8-8-8-8-8-8-8-8-8-8-8-8-8-8-8-7-7-7-7-7-7-7-7-7-7-7-7-7-7-7-7-|
------------------------------------------------------------------|
------------------------------------------------------------------|



------------------------------------------------------------------|
------------------------------------------------------------------|
------------------------------------------------------------------|
--5-5-5-5-5-5-5-5-5-5-5-5-5-5-5-5-7-7-7-7-7-7-7-7-8-8-8-8-8-8-8-8-|
------------------------------------------------------------------|
------------------------------------------------------------------|



------------------------------------------------------------------|
------------------------------------------------------------------|
------------------------------------------------------------------|
--5-5-5-5-5-5-5-5-5-5-5-5-5-5-5-5-7-7-7-7-7-7-7-7-7-7-7-7-7-7-7-7-|
------------------------------------------------------------------|
------------------------------------------------------------------|



--------------------------------------------------------------------------|
--------------------------------------------------------------------------|
--------------------------------------------------------------------------|
--7-7-7-7-7-7-7-7-7-7-7-7-7-7-7-7-8-8-8-8-8-8-8-8-10-10-10-10-10-10-10-10-|
--------------------------------------------------------------------------|
--------------------------------------------------------------------------|



--------------------------------------------------------------------------|
--------------------------------------------------------------------------|
--------------------------------------------------------------------------|
--8-8-8-8-8-8-8-8-10-10-10-10-10-10-10-10-7-7-7-7-7-7-7-7-7-7-7-7-7-7-7-7-|
--------------------------------------------------------------------------|
--------------------------------------------------------------------------|



--------------------------------------------------------------------------|
--------------------------------------------------------------------------|
--------------------------------------------------------------------------|
--7-7-7-7-7-7-7-7-10-10-10-10-10-10-10-10-7-7-7-7-7-7-7-7-8-8-8-8-8-8-8-8-|
--------------------------------------------------------------------------|
--------------------------------------------------------------------------|



------------------------------------------------------------------------------
------------------------------------------------------------------------------
------------------------------------------------------------------------------
-10-10-10-10-10-10-10-10-10-10-10-10-10-10-10-10-7-7-7-7-7-7-7-7-7-7-7-7-7-7-7
------------------------------------------------------------------------------
------------------------------------------------------------------------------



--------------------------------------------------------------------------|
--------------------------------------------------------------------------|
--------------------------------------------------------------------------|
--7-7-7-7-7-7-7-7-7-7-7-7-7-7-7-7-8-8-8-8-8-8-8-8-10-10-10-10-10-10-10-10-|
--------------------------------------------------------------------------|
--------------------------------------------------------------------------|



--------------------------------------------------------------------------|
--------------------------------------------------------------------------|
--------------------------------------------------------------------------|
--8-8-8-8-8-8-8-8-10-10-10-10-10-10-10-10-7-7-7-7-7-7-7-7-7-7-7-7-7-7-7-7-|
--------------------------------------------------------------------------|
--------------------------------------------------------------------------|



------------------------------------------------------------------|
------------------------------------------------------------------|
------------------------------------------------------------------|
--8-8-8-8-8-8-8-8-8-8-8-8-8-8-8-8-7-7-7-7-7-7-7-7-7-7-7-7-7-7-7-7-|
------------------------------------------------------------------|
------------------------------------------------------------------|



--------------------------------------------------------------------------|
--------------------------------------------------------------------------|
--------------------------------------------------------------------------|
--8-8-8-8-8-8-8-8-10-10-10-10-10-10-10-10-7-7-7-7-7-7-7-7-7-7-7-7-7-7-7-7-|
--------------------------------------------------------------------------|
--------------------------------------------------------------------------|



--------------------------------------------------------------------------------
--------------------------------------------------------------------------------
--------------------------------------------------------------------------------
--8-8-8-8-8-8-8-8-8-8-8-8-8-8-8-8-10-10-10-10-10-10-10-10-10-10-10-10-10-10-10-1
--------------------------------------------------------------------------------
--------------------------------------------------------------------------------



------------------------------------------------------------------|
------------------------------------------------------------------|
------------------------------------------------------------------|
--8-8-8-8-8-8-8-8-8-8-8-8-8-8-8-8-7-7-7-7-7-7-7-7-7-7-7-7-7-7-7-7-|
------------------------------------------------------------------|
------------------------------------------------------------------|



--------------------------------------------------------------------------|
--------------------------------------------------------------------------|
--------------------------------------------------------------------------|
--7-7-7-7-7-7-7-7-10-10-10-10-10-10-10-10-7-7-7-7-7-7-7-7-8-8-8-8-8-8-8-8-|
--------------------------------------------------------------------------|
--------------------------------------------------------------------------|



--------------------------------------------------------------------------------
--------------------------------------------------------------------------------
--------------------------------------------------------------------------------
--10-10-10-10-10-10-10-10-10-10-10-10-10-10-10-10-7-7-7-7-7-7-7-7-7-7-7-7-7-7-7-
--------------------------------------------------------------------------------
--------------------------------------------------------------------------------



--------------------------------------------------------------------------|
--------------------------------------------------------------------------|
--------------------------------------------------------------------------|
--7-7-7-7-7-7-7-7-7-7-7-7-7-7-7-7-8-8-8-8-8-8-8-8-10-10-10-10-10-10-10-10-|
--------------------------------------------------------------------------|
--------------------------------------------------------------------------|



--------------------------------------------------------------------------|
--------------------------------------------------------------------------|
--------------------------------------------------------------------------|
--8-8-8-8-8-8-8-8-10-10-10-10-10-10-10-10-7-7-7-7-7-7-7-7-7-7-7-7-7-7-7-7-|
--------------------------------------------------------------------------|
--------------------------------------------------------------------------|



--------------------------------------------------------------------------|
--------------------------------------------------------------------------|
--------------------------------------------------------------------------|
--7-7-7-7-7-7-7-7-10-10-10-10-10-10-10-10-7-7-7-7-7-7-7-7-8-8-8-8-8-8-8-8-|
--------------------------------------------------------------------------|
--------------------------------------------------------------------------|



--------------------------------------------------------------------------------
--------------------------------------------------------------------------------
--------------------------------------------------------------------------------
--10-10-10-10-10-10-10-10-10-10-10-10-10-10-10-10-7-7-7-7-7-7-7-7-7-7-7-7-7-7-7-
--------------------------------------------------------------------------------
--------------------------------------------------------------------------------



--------------------------------------------------------------------------|
--------------------------------------------------------------------------|
--------------------------------------------------------------------------|
--7-7-7-7-7-7-7-7-7-7-7-7-7-7-7-7-8-8-8-8-8-8-8-8-10-10-10-10-10-10-10-10-|
--------------------------------------------------------------------------|
--------------------------------------------------------------------------|



--------------------------------------------------------------------------|
--------------------------------------------------------------------------|
--------------------------------------------------------------------------|
--8-8-8-8-8-8-8-8-10-10-10-10-10-10-10-10-7-7-7-7-7-7-7-7-7-7-7-7-7-7-7-7-|
--------------------------------------------------------------------------|
--------------------------------------------------------------------------|



------------------------------------------------------------------|
------------------------------------------------------------------|
------------------------------------------------------------------|
--8-8-8-8-8-8-8-8-8-8-8-8-8-8-8-8-7-7-7-7-7-7-7-7-7-7-7-7-7-7-7-7-|
------------------------------------------------------------------|
------------------------------------------------------------------|



--------------------------------------------------------------------------|
--------------------------------------------------------------------------|
--------------------------------------------------------------------------|
--8-8-8-8-8-8-8-8-10-10-10-10-10-10-10-10-7-7-7-7-7-7-7-7-7-7-7-7-7-7-7-7-|
--------------------------------------------------------------------------|
--------------------------------------------------------------------------|



--------------------------------------------------------------------------------
--------------------------------------------------------------------------------
--------------------------------------------------------------------------------
--8-8-8-8-8-8-8-8-8-8-8-8-8-8-8-8-10-10-10-10-10-10-10-10-10-10-10-10-10-10-10-1
--------------------------------------------------------------------------------
--------------------------------------------------------------------------------



------------------------------------------------------------------|
------------------------------------------------------------------|
------------------------------------------------------------------|
--8-8-8-8-8-8-8-8-8-8-8-8-8-8-8-8-7-7-7-7-7-7-7-7-7-7-7-7-7-7-7-7-|
------------------------------------------------------------------|
------------------------------------------------------------------|



--------------------------------------------------------------------------|
--------------------------------------------------------------------------|
--------------------------------------------------------------------------|
--7-7-7-7-7-7-7-7-10-10-10-10-10-10-10-10-7-7-7-7-7-7-7-7-8-8-8-8-8-8-8-8-|
--------------------------------------------------------------------------|
--------------------------------------------------------------------------|



--------------------------------------------------------------------------------
--------------------------------------------------------------------------------
--------------------------------------------------------------------------------
--10-10-10-10-10-10-10-10-10-10-10-10-10-10-10-10-7-7-7-7-7-7-7-7-7-7-7-7-7-7-7-
--------------------------------------------------------------------------------
--------------------------------------------------------------------------------



--------------------------------------------------------------------------|
--------------------------------------------------------------------------|
--------------------------------------------------------------------------|
--7-7-7-7-7-7-7-7-7-7-7-7-7-7-7-7-8-8-8-8-8-8-8-8-10-10-10-10-10-10-10-10-|
--------------------------------------------------------------------------|
--------------------------------------------------------------------------|



---------------------------------------------------|----------|------|------|
---------------------------------------------------|----------|------|------|
---------------------------------------------------|----------|------|------|
--8-8-8-8-8-8-8-8-10-10-10-10-10-10-10-10-5--------|----------|------|------|
---------------------------------------------------|----------|------|------|
---------------------------------------------------|----------|------|------|



------|------||-------|------|------|-------||-------|------|------|-------||
------|------||-------|------|------|-------||-------|------|------|-------||
------|------||*------|------|------|------*||*------|------|------|------*||
------|------||*------|------|------|------*||*------|------|------|------*||
------|------||-------|------|------|-------||-------|------|------|-------||
------|------||-------|------|------|-------||-------|------|------|-------||



-----------------------------------13----|
---11----11--11--11----11----14----------|
*----------------------------------------|
*----------------------------------------|
-----------------------------------------|
-----------------------------------------|



--13----11----11----13----------------|--11----------------9----------------|
--------------------------14----14----|--------11----11---------11----11----|
--------------------------------------|-------------------------------------|
--------------------------------------|-------------------------------------|
--------------------------------------|-------------------------------------|
--------------------------------------|-------------------------------------|



-------------------------------------||
--13----10----------11---------------||
--------------10--------------10----*||
------------------------------------*||
-------------------------------------||
-------------------------------------||



-----------------------------------13----|
---11----11--11--11----11----14----------|
*----------------------------------------|
*----------------------------------------|
-----------------------------------------|
-----------------------------------------|



--13----11----11----13----------------|--11----------------9----------------|
--------------------------14----14----|--------11----11---------11----11----|
--------------------------------------|-------------------------------------|
--------------------------------------|-------------------------------------|
--------------------------------------|-------------------------------------|
--------------------------------------|-------------------------------------|



-------------------------------------||--------------------------------------|
--13----10----------11---------------||--13----10----------11--------10------|
--------------10--------------10----*||--------------10------------------10--|
------------------------------------*||--------------------------------------|
-------------------------------------||--------------------------------------|
-------------------------------------||--------------------------------------|



|-----------------------------------13----|
|---11----11--11--11----11----14----------|
|*----------------------------------------|
|*----------------------------------------|
|-----------------------------------------|
|-----------------------------------------|



--13----11----11----13----------------|--11----------------9----------------|
--------------------------14----14----|--------11----11---------11----11----|
--------------------------------------|-------------------------------------|
--------------------------------------|-------------------------------------|
--------------------------------------|-------------------------------------|
--------------------------------------|-------------------------------------|



---------------------------------------||
--13----10----------11--------10-------||
--------------10------------------10--*||
--------------------------------------*||
---------------------------------------||
---------------------------------------||



-----------------------------------13----|
---11----11--11--11----11----14----------|
*----------------------------------------|
*----------------------------------------|
-----------------------------------------|
-----------------------------------------|



--13----11----11----13----------------|--11----------------9----------------|
--------------------------14----14----|--------11----11---------11----11----|
--------------------------------------|-------------------------------------|
--------------------------------------|-------------------------------------|
--------------------------------------|-------------------------------------|
--------------------------------------|-------------------------------------|


                                       3x
---------------------------------------||
--13----10----------11--------10-------||
--------------10------------------10--*||
--------------------------------------*||
---------------------------------------||
---------------------------------------||



--11----------------9------------------|------------------------------|------|
--------11----11-------11--11----11----|--13----10----------11--------|------|
---------------------------------------|--------------10--------------|------|
---------------------------------------|------------------------------|------|
---------------------------------------|------------------------------|------|
---------------------------------------|------------------------------|------|



------|------|------|------|------|------|------||-------|------|------|
------|------|------|------|------|------|------||-------|------|------|
------|------|------|------|------|------|------||*------|------|------|
------|------|------|------|------|------|------||*------|------|------|
------|------|------|------|------|------|------||-------|------|------|
------|------|------|------|------|------|------||-------|------|------|


                                      3x
-------||-------|------|------|-------||------|
-------||-------|------|------|-------||------|
------*||*------|------|------|------*||------|
------*||*------|------|------|------*||------|
-------||-------|------|------|-------||------|
-------||-------|------|------|-------||------|



--------------------------------------------------------------------------|
--------------------------------------------------------------------------|
--------------------------------------------------------------------------|
--7-7-7-7-7-7-7-7-10-10-10-10-10-10-10-10-7-7-7-7-7-7-7-7-8-8-8-8-8-8-8-8-|
--------------------------------------------------------------------------|
--------------------------------------------------------------------------|



--------------------------------------------------------------------------------
--------------------------------------------------------------------------------
--------------------------------------------------------------------------------
--10-10-10-10-10-10-10-10-10-10-10-10-10-10-10-10-7-7-7-7-7-7-7-7-7-7-7-7-7-7-7-
--------------------------------------------------------------------------------
--------------------------------------------------------------------------------



--------------------------------------------------------------------------|
--------------------------------------------------------------------------|
--------------------------------------------------------------------------|
--7-7-7-7-7-7-7-7-7-7-7-7-7-7-7-7-8-8-8-8-8-8-8-8-10-10-10-10-10-10-10-10-|
--------------------------------------------------------------------------|
--------------------------------------------------------------------------|



--------------------------------------------------------------------------|
--------------------------------------------------------------------------|
--------------------------------------------------------------------------|
--8-8-8-8-8-8-8-8-10-10-10-10-10-10-10-10-7-7-7-7-7-7-7-7-7-7-7-7-7-7-7-7-|
--------------------------------------------------------------------------|
--------------------------------------------------------------------------|



------------------------------------------------------------------|
------------------------------------------------------------------|
------------------------------------------------------------------|
--8-8-8-8-8-8-8-8-8-8-8-8-8-8-8-8-7-7-7-7-7-7-7-7-7-7-7-7-7-7-7-7-|
------------------------------------------------------------------|
------------------------------------------------------------------|



--------------------------------------------------------------------------|
--------------------------------------------------------------------------|
--------------------------------------------------------------------------|
--8-8-8-8-8-8-8-8-10-10-10-10-10-10-10-10-7-7-7-7-7-7-7-7-7-7-7-7-7-7-7-7-|
--------------------------------------------------------------------------|
--------------------------------------------------------------------------|



--------------------------------------------------------------------------------
--------------------------------------------------------------------------------
--------------------------------------------------------------------------------
--8-8-8-8-8-8-8-8-8-8-8-8-8-8-8-8-10-10-10-10-10-10-10-10-10-10-10-10-10-10-10-1
--------------------------------------------------------------------------------
--------------------------------------------------------------------------------



------------------------------------------------------------------|
------------------------------------------------------------------|
------------------------------------------------------------------|
--8-8-8-8-8-8-8-8-8-8-8-8-8-8-8-8-7-7-7-7-7-7-7-7-7-7-7-7-7-7-7-7-|
------------------------------------------------------------------|
------------------------------------------------------------------|



--------------------------------------------------------------------------|
--------------------------------------------------------------------------|
--------------------------------------------------------------------------|
--7-7-7-7-7-7-7-7-10-10-10-10-10-10-10-10-7-7-7-7-7-7-7-7-8-8-8-8-8-8-8-8-|
--------------------------------------------------------------------------|
--------------------------------------------------------------------------|



--------------------------------------------------------------------------------
--------------------------------------------------------------------------------
--------------------------------------------------------------------------------
--10-10-10-10-10-10-10-10-10-10-10-10-10-10-10-10-7-7-7-7-7-7-7-7-7-7-7-7-7-7-7-
--------------------------------------------------------------------------------
--------------------------------------------------------------------------------



--------------------------------------------------------------------------|
--------------------------------------------------------------------------|
--------------------------------------------------------------------------|
--7-7-7-7-7-7-7-7-7-7-7-7-7-7-7-7-8-8-8-8-8-8-8-8-10-10-10-10-10-10-10-10-|
--------------------------------------------------------------------------|
--------------------------------------------------------------------------|



--------------------------------------------------------------------------|
--------------------------------------------------------------------------|
--------------------------------------------------------------------------|
--8-8-8-8-8-8-8-8-10-10-10-10-10-10-10-10-7-7-7-7-7-7-7-7-7-7-7-7-7-7-7-7-|
--------------------------------------------------------------------------|
--------------------------------------------------------------------------|



--------------------------------------------------------------------------|
--------------------------------------------------------------------------|
--------------------------------------------------------------------------|
--7-7-7-7-7-7-7-7-7-7-7-7-7-7-7-7-8-8-8-8-8-8-8-8-10-10-10-10-10-10-10-10-|
--------------------------------------------------------------------------|
--------------------------------------------------------------------------|



---------------------------------------------------|------------------|
---------------------------------------------------|------------------|
---------------------------------------------------|------------------|
--8-8-8-8-8-8-8-8-10-10-10-10-10-10-10-10-7--------|------------------|
---------------------------------------------------|------------------|
---------------------------------------------------|------------------|



------------------|------------------|------------------||
------------------|------------------|------------------||
------------------|------------------|------------------||
------------------|------------------|------------------||
------------------|------------------|------------------||
------------------|------------------|------------------||

Clean Guitar 1




E||------|------|------|------|------|------|------|------|------|------|------|
B||------|------|------|------|------|------|------|------|------|------|------|
G||------|------|------|------|------|------|------|------|------|------|------|
D||------|------|------|------|------|------|------|------|------|------|------|
A||------|------|------|------|------|------|------|------|------|------|------|
E||------|------|------|------|------|------|------|------|------|------|------|



------|------|------|------|------|------|------|------|------|------|------|
------|------|------|------|------|------|------|------|------|------|------|
------|------|------|------|------|------|------|------|------|------|------|
------|------|------|------|------|------|------|------|------|------|------|
------|------|------|------|------|------|------|------|------|------|------|
------|------|------|------|------|------|------|------|------|------|------|



------|------|------|------|------|------|------|------|------|------|------|
------|------|------|------|------|------|------|------|------|------|------|
------|------|------|------|------|------|------|------|------|------|------|
------|------|------|------|------|------|------|------|------|------|------|
------|------|------|------|------|------|------|------|------|------|------|
------|------|------|------|------|------|------|------|------|------|------|



------|------|------|------|------|------|------|------|------|------|------|
------|------|------|------|------|------|------|------|------|------|------|
------|------|------|------|------|------|------|------|------|------|------|
------|------|------|------|------|------|------|------|------|------|------|
------|------|------|------|------|------|------|------|------|------|------|
------|------|------|------|------|------|------|------|------|------|------|



------|------|------|------|------|------|------|------|------||-------|------|
------|------|------|------|------|------|------|------|------||-------|------|
------|------|------|------|------|------|------|------|------||*------|------|
------|------|------|------|------|------|------|------|------||*------|------|
------|------|------|------|------|------|------|------|------||-------|------|
------|------|------|------|------|------|------|------|------||-------|------|



------|-------||-------|------|------|-------||-------|------|------|-------||
------|-------||-------|------|------|-------||-------|------|------|-------||
------|------*||*------|------|------|------*||*------|------|------|------*||
------|------*||*------|------|------|------*||*------|------|------|------*||
------|-------||-------|------|------|-------||-------|------|------|-------||
------|-------||-------|------|------|-------||-------|------|------|-------||



-------|------|------|-------||------||-------|------|------|-------||-------|
-------|------|------|-------||------||-------|------|------|-------||-------|
*------|------|------|------*||------||*------|------|------|------*||*------|
*------|------|------|------*||------||*------|------|------|------*||*------|
-------|------|------|-------||------||-------|------|------|-------||-------|
-------|------|------|-------||------||-------|------|------|-------||-------|


                     3x
------|------|-------||------|------|--------------------------------------|
------|------|-------||------|------|--------------------------------------|
------|------|------*||------|------|--------------------------------------|
------|------|------*||------|------|--------3-----3-----------3-----3-----|
------|------|-------||------|------|-----4-----4-----4-----4-----4-----4--|
------|------|-------||------|------|--6-----------------6-----------------|



--------------------------------------|--------------------------------------|
--------------------------------------|--------------------------------------|
--------3-----3-----------------------|--------3-----3-----------------------|
-----4-----4-----4--------3-----3-----|-----4-----4-----4--------3-----3-----|
--6--------------------4-----4-----4--|--6--------------------4-----4-----4--|
--------------------6-----------------|--------------------6-----------------|



--------------------------------------|--------------------------------------|
--------------------------------------|--------------------------------------|
--------3-----3-----------------------|--------------------------------------|
-----4-----4-----4--------3-----3-----|--------3-----3-----------3-----3-----|
--6--------------------4-----4-----4--|-----4-----4-----4-----4-----4-----4--|
--------------------6-----------------|--6-----------------6-----------------|



--------------------------------------|--------------------------------------|
--------------------------------------|--------------------------------------|
--------3-----3-----------------------|--------3-----3-----------------------|
-----4-----4-----4--------3-----3-----|-----4-----4-----4--------3-----3-----|
--6--------------------4-----4-----4--|--6--------------------4-----4-----4--|
--------------------6-----------------|--------------------6-----------------|



--------------------------------------||---------------------------------------|
--------------------------------------||---------------------------------------|
--------3-----3-----------------------||*--------------------------------------|
-----4-----4-----4--------3-----3-----||*--------3-----3-----------3-----3-----|
--6--------------------4-----4-----4--||------4-----4-----4-----4-----4-----4--|
--------------------6-----------------||---6-----------------6-----------------|



--------------------------------------|--------------------------------------|
--------------------------------------|--------------------------------------|
--------3-----3-----------------------|--------3-----3-----------------------|
-----4-----4-----4--------3-----3-----|-----4-----4-----4--------3-----3-----|
--6--------------------4-----4-----4--|--6--------------------4-----4-----4--|
--------------------6-----------------|--------------------6-----------------|



---------------------------------------||
---------------------------------------||
--------3-----3-----------------------*||
-----4-----4-----4--------3-----3-----*||
--6--------------------4-----4-----4---||
--------------------6------------------||



---------------------------------------|--------------------------------------|
---------------------------------------|--------------------------------------|
*--------------------------------------|--------3-----3-----------------------|
*--------3-----3-----------3-----3-----|-----4-----4-----4--------3-----3-----|
------4-----4-----4-----4-----4-----4--|--6--------------------4-----4-----4--|
---6-----------------6-----------------|--------------------6-----------------|


                                                                              3x
--------------------------------------|---------------------------------------||
--------------------------------------|---------------------------------------||
--------3-----3-----------------------|--------3-----3-----------------------*||
-----4-----4-----4--------3-----3-----|-----4-----4-----4--------3-----3-----*||
--6--------------------4-----4-----4--|--6--------------------4-----4-----4---||
--------------------6-----------------|--------------------6------------------||



-----------------------------|----|----|----|----|----|----|----|----|----|----|
-----------------------------|----|----|----|----|----|----|----|----|----|----|
--------3-----3--------------|----|----|----|----|----|----|----|----|----|----|
-----4-----4-----4-----------|----|----|----|----|----|----|----|----|----|----|
--6--------------------------|----|----|----|----|----|----|----|----|----|----|
--------------------6--------|----|----|----|----|----|----|----|----|----|----|



----|----|----|----|----|----|----|----||
----|----|----|----|----|----|----|----||
----|----|----|----|----|----|----|----||
----|----|----|----|----|----|----|----||
----|----|----|----|----|----|----|----||
----|----|----|----|----|----|----|----||


Clean Guitar 2




E||------|------|------|------|------|------|------|------|------|------|------|
B||------|------|------|------|------|------|------|------|------|------|------|
G||------|------|------|------|------|------|------|------|------|------|------|
D||------|------|------|------|------|------|------|------|------|------|------|
A||------|------|------|------|------|------|------|------|------|------|------|
E||------|------|------|------|------|------|------|------|------|------|------|



------|------|------|------|------|------|------|------|------|------|------|
------|------|------|------|------|------|------|------|------|------|------|
------|------|------|------|------|------|------|------|------|------|------|
------|------|------|------|------|------|------|------|------|------|------|
------|------|------|------|------|------|------|------|------|------|------|
------|------|------|------|------|------|------|------|------|------|------|



------|------|------|------|------|------|------|------|------|------|------|
------|------|------|------|------|------|------|------|------|------|------|
------|------|------|------|------|------|------|------|------|------|------|
------|------|------|------|------|------|------|------|------|------|------|
------|------|------|------|------|------|------|------|------|------|------|
------|------|------|------|------|------|------|------|------|------|------|



------|------|------|------|------|------|------|------|------|------
Добавлено: 01.04.2012
Другие материалы по этой песне:

Страница создана 20.03.2012
http://primanota.ru/windir/arntor-ein-windir-chords.htm
Привет, Гость.
Предлагаем пройти революционный курс по гитаре.
Подарок от PrimaNota.Ru, забирай!