PrimaNota.ru - самый крупный в мире бесплатный архив песенных текстов, аккордов, табулатур и нот


Windhand - Winter Sun - таба, видео

Регистрация Запомнить меня
Войти через:  Facebook Google Twitter Vk Yandex Mail.ru

Windhand - Winter Sun - таба, видео

Печатать
Просмотров: 93
-------------------------------------------------------------------------------
                             Winter Sun - Windhand
-------------------------------------------------------------------------------
Tabbed by: VakiPitsi

Tuning: Drop C (CGCFAD)

  Riff 1 (0:00-2:03)                    Mini "solo" (1:05-1:33)
D|------------------------------------|---------------------------------------|
A|------------------------------------|---------------------------------------|
F|------------------------------------|---------------------------------------|
C|-5-5-5-5--1-/-8-8-8-8--3-/-5-5-5-5--|-------5-5\3--3/5----------------------|
G|-5-5-5-5--1-/-8-8-8-8--3-/-5-5-5-5--|---------------------------------------|
C|-5-5-5-5--1-/-8-8-8-8--3-/-5-5-5-5--|---------------------------------------|

  Riff 2 (2:03-2:17)  Riff 3 (3:15-5:43)
D-------------------|--------------------------------------------------------|
A|------------------|--------------------------------------------------------|
F|------------------|--------------------------------------------------------|
C|---3h5-5-1/-8-8---|-5-3h5-3h5-3h5-3/10---8---------------------------------|
G|---3h5-5-1/-8-8---|-5-3h5-3h5-3h5-3/10---8---------------------------------|
C|---3h5-5-1/-8-8---|-5-3h5-3h5-3h5-3/10---8---------------------------------|

  Solo (3:43-4:53)
D|---------------------------------------------------------------------------|
A|---------------------------------------------------------------------------|
F|---------------------------------------------------------------------------|
C|---------------------------------------------------------------------------|
G|-8h10p8h10p8h10p8h10p8h10p8h10p8h10--13h15p13h15p13h15p13h15p13h15p13~~~~--|
C|---------------------------------------------------------------------------|

D|---------------------------------------------------------------------------|
A|---------------------------------------------------------------------------|
F|-------------15-17-17brp15-------------------15-17-17bp15------------------|
C|-15h17~~~~17---------------17---15h17~~~~-17--------------17---------------|
G|---------------------------------------------------------------------------|
C|---------------------------------------------------------------------------|

D|-------------------------------------------------------------------------------------------------------------|
A|-------------------------------------------------------------------------------------------------------------|
F|-------------------------------------------------------------------------------------------------------------|
C|-15h17----15h17----15h17----15h17~~~~~--15h17p15h17p15h17----------------------15h17p15h17p15----------------|
G|-------17-------17-------17--------------------------------17-15h17p15h17p15h17~---------------15h17p15h17p15|
C|-------------------------------------------------------------------------------------------------------------|

D|-------------------------------------------------------------------------------------------------------------|
A|---------------------------------------------15h17p15h17p15h17p15~~~~~~--15h17p15h17p15h17/20~~~-------------|
F|-------------------------------------------------------------------------------------------------------------|
C|-15h17p15h17p15h17~~~--15h17p15h17p15h17---------------------------------------------------------------------|
G|-------------------------------------------------------------------------------------------------------------|
C|-------------------------------------------------------------------------------------------------------------|

Riff 1 (5:43-6:08)
Riff 2 (6:08-7:13)
Riff 2 (7:13-end) Played Slowly

The solo was VERY hard to write down as there are multiple effects used and can be tricky to hear the exact 
notes. It's not really accurate just an idea of how it goes, however due to the effects and pedals used that 
make it kinda "abstract" it can be easily modified/improvised to suit you without ruining the song.

************************************

| /   slide up
| \   slide down
| h   hammer-on
| p   pull-off
| ~   vibrato
| +   harmonic
| x   Mute note
| b   Bend
| pb  Pre-bend
| br  Bend release
| pbr Pre-bend release
| brb Bend release bend

************************************
Добавлено: 23.06.2016
Другие материалы по этой песне:
  • Аккорды и текст

Страница создана 23.06.2016
http://primanota.ru/windhand/winter-sun-chords.htm
Привет, Гость.
Предлагаем пройти революционный курс по гитаре.
Подарок от PrimaNota.Ru, забирай!