PrimaNota.ru - самый крупный в мире бесплатный архив песенных текстов, аккордов, табулатур и нот


Wind In Sails - Side By Side - таба, видео

Регистрация Запомнить меня
Войти через:  Facebook Google Twitter Vk Yandex Mail.ru

Wind In Sails - Side By Side - таба, видео

Печатать
Просмотров: 110
Уроки эстрадного вокала в Санкт-Петербурге
-------------------------------------------------------------------------------
                             Side By Side - Wind In Sails
-------------------------------------------------------------------------------
Tabbed by: Fferyllt97

Tuning: Half-Step Down

This is a tab of a perfect song by Wind In Sails. 
In the analysis of this song, I was guided by this video: http://www.youtube.com/watch?v=sYTcZujWh5Y
I hope you're figure it out ;) Enjoy of playing this!

INTRO(and main part):
e|------------3-0-----------------------------7-5-----------------------------------|
B|-----3---------------3------0-3------0---------------3------3-5-------------------|
G|----------------------------------------------------------------------------------|
D|-------x--------x------x--------x------x--------x------x--------------------------|
A|--3----x--3-----x--3---x--3-----x--7---x--7-----x--5---x--5-----------------------|
E|-------x--------x------x--------x------x--------x------x--------------------------|

CHORDS:
e|--0-------0-------0-------------------------------------------------------------|
B|--3-------3-------3-------------------------------------------------------------|
G|--0-------2-------0-------------------------------------------------------------|
D|--2-------0-------2-------------------------------------------------------------|
A|--2-------x-------3-------------------------------------------------------------|
E|--0-------x-------x-------------------------------------------------------------|

VERSE 1.

    All lined up, in perfect rows 
    By the picket fence where they used to grow              
e|------------3-0-----------------------------7-5-----------------------------------|
B|-----3---------------3------0-3------0---------------3------3-5-------------------|
G|----------------------------------------------------------------------------------|
D|-------x--------x------x--------x------x--------x------x--------------------------|
A|--3----x--3-----x--3---x--3-----x--7---x--7-----x--5---x--5-----------------------|
E|-------x--------x------x--------x------x--------x------x--------------------------|

    Where I'd hold your hands and you'd hold me close.. Ooh-oh
e|------------3-0-----------------------------7-5-----------------------------------|
B|-----3---------------3------0-3------0-----------------------------------------|
G|----------------------------------------------------------------------------------|
D|-------x--------x------x--------x------x--------x--------------------------------|
A|--3----x--3-----x--3---x--3-----x--7---x--7-----x--5----------------------------|
E|-------x--------x------x--------x------x--------x--------------------------------|
    
    We were oh so young when we found our ghosts sitting side by side on the east coast
e|------------3-0-----------------------------7-5-----------------------------------|
B|-----3---------------3------0-3------0---------------3------3-5-------------------|
G|----------------------------------------------------------------------------------|
D|-------x--------x------x--------x------x--------x------x--------------------------|
A|--3----x--3-----x--3---x--3-----x--7---x--7-----x--5---x--5-----------------------|
E|-------x--------x------x--------x------x--------x------x--------------------------|

  When we're caught up in fear that we both share do we let go
  Should we let go
e|------------3-0-----------------------------7-5-----------------------------------|
B|-----3---------------3------0-3------0---------------3------3-5---3----------------|
G|------------------------------------------------------------------0----------------|
D|-------x--------x------x--------x------x--------x------x----------0----------------|
A|--3----x--3-----x--3---x--3-----x--7---x--7-----x--5---x--5-------3----------------|
E|-------x--------x------x--------x------x--------x------x----------3----------------|
CHROUS:

    And even if you walk away from me I'll still be with you
e|--0-------0-------0-------------------------------------------------------------|
B|--3-------3-------3-------------------------------------------------------------|
G|--0-------2-------0-------------------------------------------------------------|
D|--2-------0-------2-------------------------------------------------------------|
A|--2-------x-------3-------------------------------------------------------------|
E|--0-------x-------x-------------------------------------------------------------|

 Maybe when our hearts have healed we'll find some comfort then
e|--0-------0-------0-------------------------------------------------------------|
B|--3-------3-------3-------------------------------------------------------------|
G|--0-------2-------0-------------------------------------------------------------|
D|--2-------0-------2-------------------------------------------------------------|
A|--2-------x-------3-------------------------------------------------------------|
E|--0-------x-------x-------------------------------------------------------------|

 If everything we built upon the hill slowly dismantled
e|--0-------0-------0-------------------------------------------------------------|
B|--3-------3-------3-------------------------------------------------------------|
G|--0-------2-------0-------------------------------------------------------------|
D|--2-------0-------2-------------------------------------------------------------|
A|--2-------x-------3-------------------------------------------------------------|
E|--0-------x-------x-------------------------------------------------------------|

Could we find the time it takes to build it up again


  Build it up again          Brick by brick...
e|-----------3-0----------------------------7-5------|
B|----3--------------3------0-3------0---------------|
G|---------------------------------------------------|
D|------x-------x------x--------x------x--------x----|
A|-3----x--3----x--3---x--3-----x--7---x--7-----x--5-|
E|------x-------x------x--------x------x--------x----|

Next verse and chrous are played the same way:

It's the loneliest feeling in the world
Yea when your waiting, just waiting to be found
And pictures they don't do a thing for me now
No their fading, just faded faces all worn out

And even if you walk away from me I'll still be with you
Maybe when our hearts have healed we'll find some comfort then
If everything we built upon the hill slowly dismantle
Could we find the time it takes to build it up again

Build it up again
Brick by brick

And even if you walk away from me I'll still be with you..



************************************

| /   slide up
| \   slide down
| h   hammer-on
| p   pull-off
| ~   vibrato
| +   harmonic
| x   Mute note
| b   Bend
| pb  Pre-bend
| br  Bend release
| pbr Pre-bend release
| brb Bend release bend

************************************
Добавлено: 20.03.2016
Вам также может быть интересно:
Другие материалы по этой песне:
  • Аккорды и текст

Страница создана 20.03.2016
http://primanota.ru/wind-in-sails/side-by-side-chords.htm
Привет, Гость.
Предлагаем пройти революционный курс по гитаре.
Подарок от PrimaNota.Ru, забирай!