PrimaNota.ru - самый крупный в мире бесплатный архив песенных текстов, аккордов, табулатур и нот


Wilson - Right To Rise - таба, видео

Регистрация Запомнить меня
Войти через:  Facebook Google Twitter Vk Yandex Mail.ru

Wilson - Right To Rise - таба, видео

Печатать
Просмотров: 70
Wilson: Right To Rise

Transcribed by: mysticguitar77

Facebook: https://www.facebook.com/MysticGuitar77
YouTube Channel: https://www.youtube.com/user/MysticGuitar77

Date last modified: November 23, 2015

Tuning: Drop C# (C#,G#,C#,F#,A#,D#)

Riff 1
D#|------------------------------------------------------------------|
A#|------------------------------------------------------------------|
F#|-------8-8-8-------5-5-5-------5-------8-8-8-------5-5-x-x-7b-7b~-|
C#|-7-5-7-------7-5-7-------7-5-7-5-7-5-7-------7-5-7-5-5-x-x-7b-7b~-|
G#|-7-5-7-------7-5-7-------7-5-7---7-5-7-------7-5-7----------------|
C#|-7-5-7-------7-5-7-------7-5-7---7-5-7-------7-5-7----------------|

Play Riff 1 x2

Riff 2   "Only the darkness knows our names..."
D#|--------------------------------------------------------------------|
A#|--------------------------------------------------------------------|
F#|------------------------------------2-0-2-8-8-8-2-0-2-5-5-5-2-0-2-5-|
C#|-5*---------------------------------2-0-2-8-8-8-2-0-2-5-5-5-2-0-2-5-|
G#|----0-0-0-0-0-0-0-0-0-0-0-0-0-0-0-0---------------------------------|
C#|--------------------------------------------------------------------|
       * * * * * * * * * * * * * * * *

Play Riff 2 x2   "Covered in black we walk through flames..." (minus the harmonic)

Riff 3   "The bite from the dog that won't back down..."
D#|--------------------------------------------------------------------|
A#|--------------------------------------------------------------------|
F#|--------------------------------------------------------------------|
C#|--------------------------------------------------------------------|
G#|-0-0-0-0-0-0-0-0-0-0-0-0-0-0-0-0-0-0-0-0-0-0-0-0-0-0-0-0-0-0-0-0----|
C#|-----------------------------------------------------------------7\-|
    * * * * * * * * * * * * * * * * * * * * * * * * * * * * * * * *

D#|------------------------------------------------|
A#|------------------------------------------------|
F#|------------------------------------------------|
C#|------------------------------------------------|
G#|------------------------------------------------|
C#|-3-3-3-3-3-3-3-3-3-3-3-3-3-3-3\-0-0-0-0-0-0-0-0-|
    * * * * * * * * * * * * * *    * * * * * * * *

Riff 4   "You got the right to rise..."
D#|-----------------------------------------------------|
A#|-----------------------------------------------------|
F#|-9--9--9--9--9--9--9---8--8-8-8-8-9---8--8-8-8-8-9---|
C#|-7--7--7--7--7--7--7---7--7-7-7-7-7---7--7-7-7-7-7---| x2
G#|-0--0--0--0--0--0--0-x--------------x--------------x-|
C#|-----------------------------------------------------|

D#|-------------------------------------------------------|
A#|-------------3--3--3-3---------------------------------|
F#|-5--5--5-5---2--2--2-2---8--8-8-8-8-9---8--8-8-8-8-9---|
C#|-3--3--3-3---0--0--0-0---7--7-7-7-7-7---7--7-7-7-7-7---|
G#|-3--3--3-3-x-0--0--0-0-x--------------x--------------x-|
C#|-3--3--3-3-x-0--0--0-0---------------------------------|

D#|---------------------------------|
A#|---------------------------------|
F#|-10--10--10-10---7--7---12---12\-|
C#|-10--10--10-10---7--7---10---10\-|
G#|-8---8---8--8--x-5--5-x----x-----|
C#|---------------x-0--0------------|

D#|----------------------------------------|
A#|----------------------------------------|
F#|-8-----8-9---------8-----8-9---12---12\-|
C#|-7-----7-7---------7-----7-7---10---10\-| x3
G#|---0-0-----0-0-0-0---0-0-----x----x-----|
C#|----------------------------------------|
      * *     * * * *   * *

D#|-------------------------------------|
A#|-------------------------------------|
F#|-8-----8-9---------8-----8-9---------|
C#|-7-----7-7---------7-----7-7---------|
G#|---0-0-----0-0-0-0---0-0-----0---12\-|
C#|-------------------------------0-12\-|
      * *     * * * *   * *     * *

Play Riff 1 x1
Play Riff 2 x2   "Cut from a cloth that's torn and stained..." (minus the harmonic)
Play Riff 3 x1   "The bite from the dog that won't back down..."
Play Riff 4 x1   "You got the right to rise..."

Riff 5   "I'm ready to die!!"
D#|-------------------------------------------------------------------------------|
A#|-------------------------------------------------------------------------------|
F#|-------------------------------------------------------------------------------|
C#|-------------------------------------------------------------------------------|
G#|-------------------------------------------------------------------------------|
C#|-10-0-0-10-0-0-10-0-0-10-0-0-10-0-10-11-12-0-0-12-0-0-12-0-0-12-0-0-12-0-12-11-|

D#|---------------------------------------------------|
A#|---------------------------------------------------|
F#|---------------------------------------------------|
C#|----------------------------------------0--0--0--0-|
G#|----------------------------------------0--0--0--0-|
C#|-10-0-0-10-0-0-10-0-0-10-0-0-10-0-10-11-0--0--0--0-|

Lead
D#|-----------------------------------------------------------------------------------------|
A#|------------------------------------------------------------15b16--16--16-16-16-16h17-17-|
F#|-12b14-b14-b14-b14-b14-b14-b14-b14-b14-b14-b14-b14-14r12---------------------------------|
C#|---------------------------------------------------------14------------------------------|
G#|-----------------------------------------------------------------------------------------|
C#|-----------------------------------------------------------------------------------------|

D#|-----------------------15b--15b17-12-/22~--20----20--------------------------|
A#|-16--16-16-16-16h17-13------------------------22-----/16--16-16-16-16\15-15\-|
F#|-----------------------------------------------------------------------------|
C#|-----------------------------------------------------------------------------|
G#|-----------------------------------------------------------------------------|
C#|-----------------------------------------------------------------------------|

D#|---------------------|
A#|---------------------|
F#|---------------------|
C#|-0--0--0--0--0-0-----|
G#|-0--0--0--0--0-0-12\-|
C#|-0--0--0--0--0-0-12\-|

Play Riff 4 x1   "You got the right to rise..."

Riff 6   "Rise!!"
D#|-----------------------------------|
A#|-----------------------------------|
F#|-----------------------------------|
C#|-7-5-7--7-5-7--7-5-7--7-5-7--7-7-7-|
G#|-7-5-7--7-5-7--7-5-7--7-5-7--7-7-7-|
C#|-7-5-7--7-5-7--7-5-7--7-5-7--7-7-7-|

Play Riff 6 x2   "Rise!!" (end with a slide down)

Enjoy!!
Добавлено: 06.06.2016
Вам также может быть интересно:
Другие материалы по этой песне:
  • Аккорды и текст

Страница создана 06.06.2016
http://primanota.ru/wilson/right-to-rise-chords.htm
Привет, Гость.
Предлагаем пройти революционный курс по гитаре.
Подарок от PrimaNota.Ru, забирай!