PrimaNota.ru - самый крупный в мире бесплатный архив песенных текстов, аккордов, табулатур и нот


Willy Porter - Sister - таба, видео

Регистрация Запомнить меня
Войти через:  Facebook Google Twitter Vk Yandex Mail.ru

Willy Porter - Sister - таба, видео

Печатать
Просмотров: 69
Уроки эстрадного вокала в Санкт-Петербурге
Sister
by: Willy Porter
(www.willyporter.com)
Album: Falling Forward
Tuning: EGCGGD

Transcribed by: Geoffrey V. Brown
geoffb@zerozine.com

Tune the guitar as follows:

E string (low) remains the same
A string down to G
D string down to C
G string stays the same
B string way down to G (same as other G string)
E string (high) down to D

Intro and verse portions of "Sister".  This is a great song, and
really smooth to play once you get it down.

D-----------------------------------------------------------------------
G---------4-----4/7--7\5--5--------4-----4------------------------------
G------------0----7--7\5--------------0---------------------------------
C------2------------------------2--------------------0------------------
G---0-------------7----5-----0--------------2--0--2-----------0--0------
E-------------------------------------------------------0--1------------



D-----------------------------------------------------------------------
G------4-----4/7--7\5--5--------4-----4-----------------------4---------
G---------0----7--7\5--------------0-----------------------------2------
C---2------------------------2--------------------0---------------------
G--------------7----5-----0--------------2--0--2-----------0------------
E----------------------------------------------------0--1--x------------


                                           Also played as Alt Part B
D------------------------------------0-------------------------0--------
G------5-----------5/7\5-p0-------------0--------------2^--0------------
G------5---------- 5/7\5-p0-------0-------------------------------------
C---2--------------------------2--------------------0-------------2-----
G------5--5-----5--5/7\5----0-------------------------------------------
E------------3-----------------------------1--1--0----------------------



D------------------------------------------0----------------------------
G------4--------5--------5/7/9----------------0--------------2^--0------
G---------2-----5--------5/7/9----------0-------------------------------
C------------2-----------------------2--------------------0-------------
G---0-----------5--5-----5/7/9----0-------------------------------------
E---------------------3--------------------------1--1--0----------------


D----0----------||
G---------------||
G--------------*||
C--------2-----*||
G-----------0---||
E---------------||


Alt Part B
-----------------------------------------------------
--------------2/4\2---p0-----------------------------
--------------2-4-2---p0-----------------------------
-----------0-----------------------------------------
-----------------------------------------------------
--1--1--0--------------------------------------------

     
Добавлено: 05.09.2013
Вам также может быть интересно:
Другие материалы по этой песне:
  • Аккорды и текст

Страница создана 05.09.2013
http://primanota.ru/willy-porter/sister-chords.htm
Привет, Гость.
Предлагаем пройти революционный курс по гитаре.
Подарок от PrimaNota.Ru, забирай!