PrimaNota.ru - самый крупный в мире бесплатный архив песенных текстов, аккордов, табулатур и нот


Willy Porter - Moonbeam - таба, видео

Регистрация Запомнить меня
Войти через:  Facebook Google Twitter Vk Yandex Mail.ru

Willy Porter - Moonbeam - таба, видео

Печатать
Просмотров: 70
Moonbeam
by: Willy Porter
(www.willyporter.com)
Album: Trees Have Soul
Tuning: DADGCD

Transcribed by: Geoffrey V. Brown
geoffb@zerozine.com

Here is the intro and verse of Moonbeam.  I tabbed this from the
"Trees have Soul" cd, and various live recordings that I have.  

While it may not be entirely accurate, much of this is intrepretive...
this will give you a general idea.

                                                                        
D------------------0--------0----------------0--------------------------
C-----------12--0--------0----------0-----0--------2p0-----0------------
G-------12------------5--------0h2--------------2-------0--------2------
D---12---------------------------------0----------------------3---------
A-----------------------------------------------------------------------
D--------------------------------------0--------------------------------
                                                                        

                                                                        
D------------------------0--------0----------------0--------------------
C-------0-------0-----0--------0----------0-----0--------2p0-----0------
G---p0-----0h2--------------5--------0h2--------------2-------0---------
D------------------0-------------------------0--------------------------
A-----------------------------------------------------------------------
D------------------0-------------------------0--------------------------
                                                                        

                           free time (tabbed from terrace bootleg)      
D----------------------||-----------------------------------------------
C-----------0-------0--||-----------------------------------------------
G------2p0-----0h2-----||---------------0---------------0---------------
D---3------------------||-------0---------------0---------------0-------
A----------------------||--3p2-----3h5-----3p2-----3h5-----3p2-----3----
D----------------------||-----------------------------------------------
                                                                        

                                                                        
D----------------------------------------------------0------------------
C-------------------------------------------------0----------------5----
G-------0--------0--------0--------------------0-------------------5----
D-------------0--------0-----------0--------0-----------3p2--0--x--0----
A---h5--------------------------0--------0--------------3p2--0--x-------
D----------5--------3--------2--------0-----------------3p2--0--x-------
                                                                        

                                                                        
D-------------------0----------------0-------------------||-------------
C---h6--------6-----7-----5h6-----0----------------------||-------------
G-------------5-----7-----5----------------3--------3-5--||-------------
D-------------0-----------0----------------3--------3/5--||-------------
A------------------------------------------3--------3-5--||-------------
D-------x--0-----x--0--x--0----x--0-----3-----x--3-------||-------------
                                                                        

    verse riff                                                          
D-----------------------0----------------0--------------------||--------
C------5h6--------6-----7-----5h6-----0-----------------------||--------
G------5----------5-----7-----5----------------3--------3-5--*||--------
D------0----------0-----------0----------------3--------3/5--*||--------
A----------------------------------------------3--------3-5---||--------
D---0-------x--0-----x--0--x--0----x--0-----3-----x--3--------||--------
                                                                        

     
Добавлено: 21.09.2013
Другие материалы по этой песне:
  • Аккорды и текст

Страница создана 21.09.2013
http://primanota.ru/willy-porter/moonbeam-chords.htm
Привет, Гость.
Предлагаем пройти революционный курс по гитаре.
Подарок от PrimaNota.Ru, забирай!