PrimaNota.ru - самый крупный в мире бесплатный архив песенных текстов, аккордов, табулатур и нот


Willy Porter - If Love Were An Airplane - таба, видео

Регистрация Запомнить меня
Войти через:  Facebook Google Twitter Vk Yandex Mail.ru

Willy Porter - If Love Were An Airplane - таба, видео

Печатать
Просмотров: 58
Artist: Willy Porter
Song: If Love Were An Airplane
Album: Willy Porter (2002)

Transcribed by: Dan Greuel  dan@danrules.com>

Tuning: Standard

Intro:

    Em          Asus4      G         Asus4

e------7----------5-----------3------5-5---5--5------|
B-----8-8--------5-5---------3-------5-5---5--5------|
G----9---9-\----7---7--\----4--4-----7-7---7--7------|
D---9-------\--7-----7--\--5----5----7-7---7--7------|
A--7----------5-----------5------5---5-5---5--5------|
E------------------------------------5-5---5--5------|


Verse/Chorus:

     G          C          G          C

e---3--3---/---8--8---\---3--3---/---8--8---\------||
B---3--3---/---8--8---\---3--3---/---8--8---\------||
G---4--4---/---9--9---\---4--4---/---9--9---\-----o||
D---5--5---/--10-10---\---5--5---/--10-10---\-----o||
A---5--5---/--10-10---\---5--5---/--10-10---\------||
E---3--3---/---8--8---\---3--3---/---8--8---\------||
                                    If love were an airplane...

Prechorus: (open chords)

Em         C          G           D
   "Ta - ke  me...      Ta - ke  me..."

G          C          G           C
"A - waaay..."


Solo:

e-----------------------------------------------------|
B-----------------------------------------------------|
G-----------------------------------------------------|
D---/9-9-9-7------------------------------------------| (x2)
A-----------10-9-7-7-7-------------------9-7h9-9/10~--|
E---------------------10-8-8-7-7-7-5-3-5--------------|
     
Добавлено: 01.08.2013
Другие материалы по этой песне:
  • Аккорды и текст

Страница создана 01.08.2013
http://primanota.ru/willy-porter/if-love-were-an-airplane-chords.htm
Привет, Гость.
Предлагаем пройти революционный курс по гитаре.
Подарок от PrimaNota.Ru, забирай!