PrimaNota.ru - самый крупный в мире бесплатный архив песенных текстов, аккордов, табулатур и нот


Willy Porter - Coolwater - аккорды и текст, видео

Регистрация Запомнить меня
Войти через:  Facebook Google Twitter Vk Yandex Mail.ru

Willy Porter - Coolwater - аккорды и текст, видео

Печатать
Просмотров: 84
Coolwater
Willy Porter
Cool Water
by: Willy Porter
(www.willyporter.com)
Album: Dog Eared Dream / Trees Have Soul
Tuning: Standard

Transcribed by: Geoffrey V. Brown
geoffb@zerozine.com

A relatively easy song to pick up.  Here it is, tabbed from the more
accoustic version on "trees have soul" ...


    Intro                                                        
E---0--------------0--------0-------2--2--2--2--0h2--2--3--2--0h2--0----
C----2--------------2------2h3------2--2--2--2--3----3--3--3--3----3----
G-----2--------------2------2-------0--0--0--0--2----2--2--2--2----2----
C------2--------------------2-------0--0--0--0--0----0--0--0--0----0----
C-------0-------------------0-------2-----------------------------------
E--------------------------------3--3-----------------------------------
                                                                        

                             based on these chords                      
E---h2--2--3--2-----------------0--2--2---------------------------------
C-------3--3--3-----------------2--2--3---------------------------------
G-------2--2--2-----------------2--0--2---------------------------------
C-------0--0--0-----------------2--0------------------------------------
C-------------------------------0--2------------------------------------
E----------------------------------3------------------------------------
                                                                        

     
Добавлено: 24.09.2013
Другие материалы по этой песне:
  • Аккорды и текст

Страница создана 24.09.2013
http://primanota.ru/willy-porter/coolwater-chords.htm
Привет, Гость.
Предлагаем пройти революционный курс по гитаре.
Подарок от PrimaNota.Ru, забирай!