PrimaNota.ru - самый крупный в мире бесплатный архив песенных текстов, аккордов, табулатур и нот


Willow Wisp - The Hurting - таба, видео

Регистрация Запомнить меня
Войти через:  Facebook Google Twitter Vk Yandex Mail.ru

Willow Wisp - The Hurting - таба, видео

Печатать
Просмотров: 112
Willow Wisp
The Hurting
The Building Up and Breaking Down of Matter
1997

http://www.willowwisp.org
http://www.myspace.com/willowwispband


Tabbed by Garrett Padilla:
soldiers.of.filth@gmail.com

I only have figured out the main riff, set in E standard. 
Feel free to criticize, as this is my second song tabbed by ear.


Tempo: 123

(Let all ring)

E|------------|------------|------------|------------|
B|------------|------------|------------|------------|
G|----9-----9-|-10----9----|----9-----9-|-10----9----|
D|-7----10----|----7-----7-|------10----|----7-----7-|
A|------------|------------|-8----------|------------|
E|------------|------------|------------|------------|


E|------------|------------|------------|------------|
B|------------|------------|------------|------------|
G|----9-----9-|-10----9----|----9-----9-|----9-----9-|
D|-7----10----|----7-----7-|------10----|-9-----10---|
A|------------|------------|-8----------|------------|
E|------------|------------|------------|------------|


E|------------|------------|------------|------------|
B|------------|------------|------------|------------|
G|----9-----9-|-10----9----|----9-----9-|-10----9----|
D|-7----10----|----7-----7-|------10----|----7-----7-|
A|------------|------------|-8----------|------------|
E|------------|------------|------------|------------|


E|------------|------------|------------|------------|
B|------------|------------|------------|------------|
G|----9-----9-|-10----9----|----9-----9-|----9-----9-|
D|-7----10----|----7-----7-|------10----|-9----10----|
A|------------|------------|-11---------|------------|
E|------------|------------|------------|------------|


I find this best sounds with a Line 6 Spider III 75 on John 5 
Acoustic setting, with the Echo all the way off, a very small 
amount of Delay, and Reverb up to max.
Добавлено: 09.06.2012
Другие материалы по этой песне:
  • Аккорды и текст

Страница создана 09.06.2012
http://primanota.ru/willow-wisp/the-hurting-chords.htm
Привет, Гость.
Предлагаем пройти революционный курс по гитаре.
Подарок от PrimaNota.Ru, забирай!