PrimaNota.ru - самый крупный в мире бесплатный архив песенных текстов, аккордов, табулатур и нот


Willie The Wild One - Willie The Wild One - таба, видео

Регистрация Запомнить меня
Войти через:  Facebook Google Twitter Vk Yandex Mail.ru

Willie The Wild One - Willie The Wild One - таба, видео

Печатать
Просмотров: 82
Уроки эстрадного вокала в Санкт-Петербурге
From "Back From the Grave" 60s garage rock compilation.

Play it as fast as you can!


Chords - 

Verse - D A E E

Chorus - A        D    E    



Solo - 

 A                             D
e|---------------------------------------------------------------------------|
B|------------------13----13-15/17--13----15/17--13----15/17--13----13-------|
G|--/14----12h14x6-----14--------------14-----------14-----------14----14----|
D|--/14----------------------------------------------------------------------|
A|---------------------------------------------------------------------------|
E|---------------------------------------------------------------------------|


     E                                           A
e|---------------------------------------------------------------------------|
B|-13/15--15--13/15--15--13/15--15-15--15-15---------------------------------|
G|-14/16--16--14/16--16--14/16--16-16--16-16--12h14-----14----14----14-----14|
D|---------------------------------------------------------------------------|
A|---------------------------------------------------------------------------|
E|---------------------------------------------------------------------------|

                     D
e|---------------------------------------------------------------------------|
B|-------13----13-15b17-17-17-17-17r15-15--13-15--13-15b17-15b17-15--13-15---|
G|-14-14----14---------------------------------------------------------------|
D|---------------------------------------------------------------------------|
A|---------------------------------------------------------------------------|
E|---------------------------------------------------------------------------|

e|------------12-----------12-----------12-----------------------------------|
B|13-15b17----------15b17---------15b17--------------------------------------|
G|---------------------------------------------------------------------------|
D|---------------------------------------------------------------------------|
A|---------------------------------------------------------------------------|
E|---------------------------------------------------------------------------|
Добавлено: 26.03.2016
Другие материалы по этой песне:
  • Аккорды и текст

Страница создана 25.03.2016
http://primanota.ru/willie-wild-one/willie-wild-one-chords.htm
Привет, Гость.
Предлагаем пройти революционный курс по гитаре.
Подарок от PrimaNota.Ru, забирай!