PrimaNota.ru - самый крупный в мире бесплатный архив песенных текстов, аккордов, табулатур и нот


Willie Nelson - Turn Me Loose And Let Me Swing - таба, видео

Регистрация Запомнить меня
Войти через:  Facebook Google Twitter Vk Yandex Mail.ru

Willie Nelson - Turn Me Loose And Let Me Swing - таба, видео

Печатать
Просмотров: 96
Уроки эстрадного вокала в Санкт-Петербурге
Artist: Willie Nelson
Album: All The Songs I've Loved Before
Song: Turn Me Loose And Let Me Swing
Tabed For Tune: E
Tabed By Janne Tschokkinen
E-Mail: janne.tschokkinen@kolumbus.fi
Site: http://www.kolumbus.fi/janne.tschokkinen

!!!These tabs were created without any kinds of money making 
purposes and are to be used only for educational purposes!!!

!!!C not re-publish this tab without permission!!!
--------------------------------------------------------------

Intro: w/Fig.1
| Bb | Eb C | F | Bb |

Verse: 1
| Bb | Eb | F | Bb | Bb | Eb C | F | F Bb |

Chorus:
|: Bb | C | F | Bb :|

Bridge:
| Eb | Bb | C F | Bb |

Verse: 2
| Bb | Eb | F | Bb | Bb | Eb C | F | F Bb |

Chorus:
| Bb | C | F | Bb | Bb | C | F |

Solo:
| Bb | Eb C | F | Bb | Bb Cm D
|: Eb | Bb | Eb | F | Eb | Bb | C F | Bb :|

Chorus:
|: Bb | C | F | Bb :|


This Intro fig is combination of both guitar and violin parts.
  Fig.1
E|---------------------|----------------------------8--|
H|-11-11-10--11-11-10--|-11-11-----8-9-8------11----8--|
G|-10-10-10--10-10-10--|-10-10-10----------10-------9--|
D|---------------------|-------------------------------|
A|---------------------|-------------------------------|
E|---------------------|-------------------------------|

E|---------8-9-10---|------------------------|
H|-10---11--------8-|---------11-11-10-10-11-|
G|------------------|-10--10--12-12-10-10-12-|
D|------------------|------------------------|
A|------------------|------------------------|
E|------------------|------------------------|


I suggest that you improvise rest of the guitar solos.

Here are the notes I use to play the solos...I know it's simple, but I like it :)
E|------------------------8-9-10-12-|
H|-----------8-9-10-11-13-----------|
G|-7-9-10-12------------------------|
D|----------------------------------|
A|----------------------------------|
E|----------------------------------|

     
Добавлено: 22.06.2013
Другие материалы по этой песне:
  • Аккорды и текст

Страница создана 22.06.2013
http://primanota.ru/willie-nelson/turn-me-loose-and-let-me-swing-chords.htm
Привет, Гость.
Предлагаем пройти революционный курс по гитаре.
Подарок от PrimaNota.Ru, забирай!