PrimaNota.ru - самый крупный в мире бесплатный архив песенных текстов, аккордов, табулатур и нот


Willie Brown - Mississippi Blues - таба, видео

Регистрация Запомнить меня
Войти через:  Facebook Google Twitter Vk Yandex Mail.ru

Willie Brown - Mississippi Blues - таба, видео

Печатать
Просмотров: 60
Tuning: Standard
  

Q=148           Q=144       Q=148
                            $
 12/8
  Gtr I
  Q.   Q.   Q.     E  +E  E   Q  E +E  E E Q  E  E  E E
|---------------------------|----7-(7)-----5--5-(5)---7-|
|---------------------------|----8-(8)-----7--5-(5)---8-|
|------------------4--(4)-5-|-6----------6-------5--6---|
|---------------------------|---------------------------|
|---------------0-(0)-------|-------0------------0------|
|---------------------------|-0------------0------------|
  Q.   Q.   Q   E +Q      E   Q  E  Q    E Q  E  Q    E


  +E  E E Q  E +E  E E Q  E
|-(7)-----5--5-(5)-----------|
|-(8)-----7--5-(5)-----------|
|-------6------------4-5--6--|
|----------------------------|
|---------0------------0-----|
|--0------------0------------|
   Q    E Q  E  Q    E Q  E


  +E  E E +E  E E Q  E  E  E E
|-------7-(7)-----5--5-(5)---7-|
|-------8-(8)-----7--5-(5)---8-|
|-(6)-----------6-------5--6---|
|------------------------------|
|----------0------------0------|
|--0--------------0------------|
   Q    E  Q    E Q  E  Q    E


  +E  E E Q  E +E  E E Q  E   E E E E E E Q  E Q  E
|-(7)-----5--5-(5)----------|-----------------------|
|-(8)-----7--5-(5)----------|---5-----3-------------|
|-------6-------------------|-5---5-4---4-2---------|
|--------------------2-3--4-|----------------2-3--4-|
|---------0-----------------|-----------------------|
|--0------------0----3-4--5-|-5-----3-----2--3-4--5-|
   Q    E Q  E  Q    E Q  E   Q   E Q   E Q  E Q  E


  E E E E E E Q  E  Q   E   Q  E +E  E E Q  E  E  E E
|-------------------------|----7-(7)-----5--5-(5)---7-|
|---5-----3---------------|----8-(8)-----7--5-(5)---8-|
|-5---5-4---4-2-----4---5-|-6----------6-------5--6---|
|-------------------------|---------------------------|
|----------------0-(0)----|-------0------------0------|
|-5-----3-----2-----------|-0------------0------------|
  Q   E Q   E Q  E +Q   E   Q  E  Q    E Q  E  Q    E


  +E  E E Q  E +E  E E Q  E
|-(7)-----5--5-(5)---0-2--3-|
|-(8)-----7--5-(5)---2-3--4-|
|-------6-------------------|
|---------------------------|
|---------0------------0----|
|--0------------0-----------|
   Q    E Q  E  Q    E Q  E


  Q  E  Q   E  E E E +Q   E   E E E  E   E  E Q  E Q.
|-4--0-(0)---------0-(0)----|-------------------------------|
|-5-----3---0-(0)-----------|-1---0-(0)---------------------|
|-------4------0h1----------|---2----2---1------------------|
|-6------------2------------|--------0--(0)-2-1--0----------|
|---------------------------|----------------------3b3.5--0-|
|---------------------0---1-|-2---------------2-------------|
  Q  E  Q   E  Q   E  Q   E   Q   E  E  +E  E Q  E Q      E


  +Q   E +Q   E Q  +E  E E E
|----------------------------|
|------2-(2)----3--(3)-1---0-|
|------2-(2)-------------2---|
|-------------4-----3--------|
|-(0)------------------------|
|--0------3-----2------1-----|
   Q   E  Q   E Q   E  Q   E


                      Q=144
                           D.S.
  Q  +E   E  E E +Q   E  Q   E
|--------------0-(0)-----------|
|------------3-----------------|
|-2--(2)-----------------4---5-|
|-----------------2------------|
|-0-------2-----------0-(0)----|
|-----0--(0)-------------------|
  Q   E  +Q    E  Q   E +Q   E


    Q=148
    Q  E +E  E E Q  E +Q   E   Q  E Q  E +E  E E Q  E
||-----7-(7)-----5--5-(5)----|-7----5--5-(5)----------|
||o----8-(8)-----7--5-(5)----|-8----7--5-(5)----------|
||--6----------6-----------6-|----6------------4-5--6-|
||---------------------------|------------------------|
||o-------0------------0-----|------0------------0----|
||--0------------0-----------|-0----------0-----------|
    Q  E  Q    E Q  E  Q   E   Q  E Q  E  Q    E Q  E


  +Q   E +E  E E Q  E +Q   E   Q  E Q  E +E  E E Q  E   Q  E Q  E Q  E Q  E
|------7-(7)-----5--5-(5)----|-7----5--5-(5)----------|---------------------|
|------8-(8)-----7--5-(5)----|-8----7--5-(5)----------|---------------------|
|-(6)----------6-----------6-|----6-------------------|-5----4----2---------|
|----------------------------|-----------------2-3--4-|--------------2-3--4-|
|---------0------------0-----|------0-----------------|---------------------|
|--0-------------0-----------|-0----------0----3-4--5-|-5----3----2--3-4--5-|
   Q   E  Q    E Q  E  Q   E   Q  E Q  E  Q    E Q  E


  E E E E E E Q  E  Q   E
|-------------------------|
|---5-----3---------------|
|-5---5-4---4-2-----4---5-|
|-------------------------|
|----------------0-(0)----|
|-5-----3-----2-----------|
  Q   E Q   E Q  E +Q   E


  Q  E +E  E E Q  E +Q   E   Q  E Q  E +E  E E  Q   E
|----7-(7)-----5--5-(5)----|-7----5--5-(5)---0--2---3-|
|----8-(8)-----7--5-(5)----|-8----7--5-(5)---2--3---4-|
|-6----------6-----------6-|----6---------------------|
|--------------------------|--------------------------|
|-------0------------0-----|------0-------------------|
|-0------------0-----------|-0----------0------(0)----|
  Q  E  Q    E Q  E  Q   E   Q  E Q  E  Q    E +Q   E


  Q  E  Q   E  E E E +E  E E   E E E  E  E E Q      E Q      E
|-4--0-(0)---------0-(0)-----|---------------------------------|
|-5-----3---0-(0)----------3-|-1---0-(0)-----------------------|
|-------4------0h1-------1---|---2----2--1---------------------|
|-6------------2------2------|-------------2-1b1.5--0----------|
|----------------------------|--------0------0--------3b3.5--0-|
|----------------------------|-1-------------------------------|
  Q  E  Q   E  Q   E  Q    E   Q   E  Q    E Q      E Q      E


   Q.     E  E  E  Q  +E  E E E
|-------------------------------|
|---------2--------3--(3)-1---0-|
|---------------------------2---|
|---------------4------3--------|
|-(0)---------------------------|
|------2-(2)-2-(2)-2------1-----|
  +Q   E +E  E +E  Q   E  Q   E


  1.                               2.148               Q=140 Q=14
  Q  +E   E  E E +Q   E  Q   E     Q  +E   E  E E +Q   E E E E
|--------------0-(0)------------||--------------0-(0)--0-0-0-0--|
|------------3-----------------o||------------3--------3-3-3-3\-|
|-2--(2)-----------------4---5--||-2--(2)-----------------------|
|-----------------2-------------||-----------------2------------|
|-0-------2-----------0-(0)----o||-0-------2-------------2------|
|-----0--(0)--------------------||-----0--(0)-------------------|
  Q   E  +Q    E  Q   E +Q   E     Q   E  +Q    E  Q   E Q   E


 2Q=146
   E  E  E  E  E  E  E  E  E  E  E  E
|--9--9--9--9--9--9--9--9--9--9--9--9-|
|-10-10-10-10-10-10-10-10-10-10-10-10-|
|-------------------------------------|
|-------------------------------------|
|--0-----0-----------7-----7--9-----7-|
|-----------9-----9-------------------|
   Q     E  Q     E  Q     E  Q     E


   E  E  E  E  E  E  E  E  E  E  E  E
|--9--9--9--9--9--9--9--9--9--9--9--9-|
|-10-10-10-10-10-10-10-10-10-10-10-10-|
|-------------------------------------|
|--7-----7----------------------------|
|-----------9-----9--7-----7----------|
|-----------------------------9-----9-|
   Q     E  Q     E  Q     E  Q     E


   E  E  E  E  E  E  E  E  E  E  E  E    E  E  E  E  E  E  E  E  E  E  E  E
|--9--9--9--9--9--9--9--9--9--9--9--9-|--9--9--9--9--9--9--9--9--9--9--9--9-|
|-10-10-10-10-10-10-10-10-10-10-10-10-|-10-10-10-10-10-10-10-10-10-10-10-10-|
|-------------------------------------|-------------------------------------|
|-------------------------------------|--7-----7----------------------------|
|--0-----0-----------7-----7--9-----7-|-----------9-----9--7-----7--------0-|
|-----------9-----9-------------------|-----------------------------9-------|
   Q     E  Q     E  Q     E  Q     E    Q     E  Q     E  Q     E  Q     E


   E  E  E  E  E  E  E  E  E  E  E  E
|--8--8--8--8--8--8--8--8--8--8--8--8-|
|-10-10-10-10-10-10-10-10-10-10-10-10-|
|-------------------------------------|
|--0-----0-----------7-----7--9-----7-|
|-----------9-----9-------------------|
|-------------------------------------|
   Q     E  Q     E  Q     E  Q     E


   E  E  E  E  E  E  E  E  E  E  E  E    E  E  E  E  E  E  E  E  E  E  E  E
|--8--8--8--8--8--8--8--8--8--8--8--8-|--9--9--9--9--9--9--9--9--9--9--9--9-|
|-10-10-10-10-10-10-10-10-10-10-10-10-|-10-10-10-10-10-10-10-10-10-10-10-10-|
|--7-----7----------------------------|-------------------------------------|
|-----------9-----9--7-----7--------0-|-------------------------------------|
|-----------------------------9-------|--0-----0-----------7-----7--9-----7-|
|-------------------------------------|-----------9-----9-------------------|
   Q     E  Q     E  Q     E  Q     E    Q     E  Q     E  Q     E  Q     E


   E  E  E  E  E  E  E  E  E  Q  E
|--9--9--9--9--9--9--9--9--9--9--3-|
|-10-10-10-10-10-10-10-10-10-10----|
|----------------------------------|
|--7-----7-------------------------|
|-----------9-----9--7-----7-------|
|----------------------------------|
   Q     E  Q     E  Q     E  Q  E


  Q   E  Q   E E E E +Q   E   E E E  E   E  E Q  E Q.
|-4---0-(0)--------0-(0)----|-------------------------------|
|--------3---0-----3--------|-1---0-(0)---------------------|
|--------4-----0h1----------|---2----2---1------------------|
|--------------2------------|--------0--(0)-2-1--0----------|
|---------------------------|----------------------3b3.5--0-|
|---------------------0---1-|-2---------------2-------------|
  Q.     Q   E Q   E  Q   E   Q   E  E  +E  E Q  E Q      E


  +Q   E +Q   E Q  +E  E E E
|----------------------------|
|------2-(2)----3--(3)-1---0-|
|------2-(2)-------------2---|
|-------------4-----3--------|
|-(0)------------------------|
|--0------3-----2------1-----|
   Q   E  Q   E Q   E  Q   E


                      Q=142  Q=14Q=148
  Q  +E   E  E E +Q   E  Q   E   Q  E +E  E E Q  E  E  E E
|--------------0-(0)-----------|----7-(7)-----5--5-(5)---7-|
|------------3-----------------|----8-(8)-----7--5-(5)---8-|
|-2--(2)-----------------4---5-|-6----------6-------5--6---|
|-----------------2------------|---------------------------|
|-0-------2-----------0-(0)----|-------0------------0------|
|-----0--(0)-------------------|-0------------0------------|
  Q   E  +Q    E  Q   E +Q   E   Q  E  Q    E Q  E  Q    E


  +E  E E Q  E +E  E E Q  E
|-(7)-----5--5-(5)----------|
|-(8)-----7--5-(5)----------|
|-------6------------4-5--6-|
|---------------------------|
|---------0------------0----|
|--0------------0-----------|
   Q    E Q  E  Q    E Q  E


  +E  E E +E  E E Q  E  E  E E   +E  E E Q  E +E  E E Q  E
|-------7-(7)-----5--5-(5)---7-|-(7)-----5--5-(5)----------|
|-------8-(8)-----7--5-(5)---8-|-(8)-----7--5-(5)----------|
|-(6)-----------6-------5--6---|-------6-------------------|
|------------------------------|--------------------2-3--4-|
|----------0------------0------|---------0-----------------|
|--0--------------0------------|--0------------0----3-4--5-|
   Q    E  Q    E Q  E  Q    E    Q    E Q  E  Q    E Q  E


  E E E E E E Q  E Q  E   E E E E E E Q  E  Q   E   Q  E +E  E E Q  E  E  E E
|-----------------------|-------------------------|----7-(7)-----5--5-(5)---7-|
|---5-----3-------------|---5-----3---------------|----8-(8)-----7--5-(5)---8-|
|-5---5-4---4-2---------|-5---5-4---4-2-----4---5-|-6----------6-------5--6---|
|----------------2-3--4-|-------------------------|---------------------------|
|-----------------------|----------------0-(0)----|-------0------------0------|
|-5-----3-----2--3-4--5-|-5-----3-----2-----------|-0------------0------------|
  Q   E Q   E Q  E Q  E   Q   E Q   E Q  E +Q   E   Q  E  Q    E Q  E  Q    E


  +E  E E Q  E +E  E E Q  E   Q  E  Q   E  E E E +Q   E
|-(7)-----5--5-(5)---0-2--3-|-4--0-(0)---------0-(0)----|
|-(8)-----7--5-(5)---2-3--4-|-5-----3---0-(0)-----------|
|-------6-------------------|-------4------0h1----------|
|---------------------------|-6------------2------------|
|---------0------------0----|---------------------------|
|--0------------0-----------|---------------------0---1-|
   Q    E Q  E  Q    E Q  E   Q  E  Q   E  Q   E  Q   E


  E E E  E   E  E Q  E Q.
|-------------------------------|
|-1---0-(0)---------------------|
|---2----2---1------------------|
|--------0--(0)-2-1--0----------|
|----------------------3b3.5--0-|
|-2---------------2-------------|
  Q   E  E  +E  E Q  E Q      E


  +Q   E +Q   E Q  +E  E E E
|----------------------------|
|------2-(2)----3--(3)-1---0-|
|------2-(2)-------------2---|
|-------------4-----3--------|
|-(0)------------------------|
|--0------3-----2------1-----|
   Q   E  Q   E Q   E  Q   E


                      Q=146      Q=148
  Q  +E   E  E E +Q   E  Q   E   Q  E +E  E E Q  E  E  E E
|--------------0-(0)-----------|----7-(7)-----5--5-(5)---7-|
|------------3-----------------|----8-(8)-----7--5-(5)---8-|
|-2--(2)-----------------4---5-|-6----------6-------5--6---|
|-----------------2------------|---------------------------|
|-0-------2-----------0-(0)----|-------0------------0------|
|-----0--(0)-------------------|-0------------0------------|
  Q   E  +Q    E  Q   E +Q   E   Q  E  Q    E Q  E  Q    E


  +E  E E Q  E +E  E E Q  E
|-(7)-----5--5-(5)----------|
|-(8)-----7--5-(5)----------|
|-------6------------4-5--6-|
|---------------------------|
|---------0------------0----|
|--0------------0-----------|
   Q    E Q  E  Q    E Q  E


  +E  E E +E  E E Q  E  E  E E   +E  E E Q  E +E  E E Q  E
|-------7-(7)-----5--5-(5)---7-|-(7)-----5--5-(5)----------|
|-------8-(8)-----7--5-(5)---8-|-(8)-----7--5-(5)----------|
|-(6)-----------6-------5--6---|-------6-------------------|
|------------------------------|--------------------2-3--4-|
|----------0------------0------|---------0-----------------|
|--0--------------0------------|--0------------0----3-4--5-|
   Q    E  Q    E Q  E  Q    E    Q    E Q  E  Q    E Q  E


  E E E E E E Q  E Q  E   E E E E E E Q  E  Q   E   Q  E +E  E E Q  E  E  E E
|-----------------------|-------------------------|----7-(7)-----5--5-(5)---7-|
|---5-----3-------------|---5-----3---------------|----8-(8)-----7--5-(5)---8-|
|-5---5-4---4-2---------|-5---5-4---4-2-----4---5-|-6----------6-------5--6---|
|----------------2-3--4-|-------------------------|---------------------------|
|-----------------------|----------------0-(0)----|-------0------------0------|
|-5-----3-----2--3-4--5-|-5-----3-----2-----------|-0------------0------------|
  Q   E Q   E Q  E Q  E   Q   E Q   E Q  E +Q   E   Q  E  Q    E Q  E  Q    E


  +E  E E Q  E +E  E E Q  E   Q  E  Q   E  E E E +E  E E
|-(7)-----5--5-(5)---0-2--3-|-4--0-(0)---------0-(0)-----|
|-(8)-----7--5-(5)---2-3--4-|-5-----3---0-(0)--3-------3-|
|-------6-------------------|-------4------0h1-------1---|
|---------------------------|-6------------2------2------|
|---------0-----------------|----------------------------|
|--0------------0-----------|----------------------------|
   Q    E Q  E  Q    E Q  E   Q  E  Q   E  Q   E  Q    E


  E E E  E  E E Q      E Q      E
|---------------------------------|
|-1---0-(0)-----------------------|
|---2----2--1-0-------------------|
|---------------2b2.5--1----------|
|--------0---------------3b3.5--0-|
|-1-------------0-----------------|
  Q   E  Q    E Q      E Q      E


   Q.     E  E  E  Q  +E  E E E
|-------------------------------|
|---------2--------3--(3)-1---0-|
|---------------------------2---|
|---------------4------3--------|
|-(0)---------------------------|
|------2-(2)-2-(2)-2------1-----|
  +Q   E +E  E +E  Q   E  Q   E


  Q=148               Q=140      Q=146
  Q  +E   E  E E +Q    E  Q  E    E  E E E  E E E  E E E  E E
|--------------0-(0)------0----|--9----9-9----9-9----9-9----9-|
|------------3------------3----|-10-10-----10-----10-----10---|
|-2--(2)-----------------------|------------------------------|
|-----------------2---(2)------|------------------------------|
|-0-------2---------------2----|--0----0--------7----7-9----9-|
|-----0--(0)-------------------|---------9----9---------------|
  Q   E  +Q    E  Q   +E  Q  E    Q    E Q    E Q    E Q    E


  E  E E E  E E E  E E E  E E
|-9----9-9----9-9----9-9----9-|
|---10-----10-----10-----10---|
|-----------------------------|
|-7----7----------------------|
|--------9----9-7----7--------|
|----------------------9----9-|
  Q    E Q    E Q    E Q    E


   E  E E E  E E E  E E E  E E   E  E E E  E E E  E E E  E E
|--9----9-9----9-9----9-9----9-|-9----9-9----9-9----9-9----9-|
|-10-10-----10-----10-----10---|---10-----10-----10-----10---|
|------------------------------|-----------------------------|
|------------------------------|-7----7----------------------|
|--0----0--------7----7-9----9-|--------9----9-7----7--------|
|---------9----9---------------|----------------------9----9-|
   Q    E Q    E Q    E Q    E   Q    E Q    E Q    E Q    E


  E  E E E  E E Q  E +E  E E   E  E E E  E E Q  E +E  E E
|-8----8-8----8-8--8---------|-8----8-8----8-8--8---------|
|---10-----10----------------|---10-----10----------------|
|----------------------------|----------------------------|
|-0----0--------7--7-(7)-7---|-0----0--------7--7-(7)-7---|
|--------9----9-------9----9-|--------9----9-------9----9-|
|----------------------------|----------------------------|
  Q    E Q    E Q  E  Q    E   Q    E Q    E Q  E  Q    E


   E  E E E  E E E  E E E  E E
|--9----9-9----9-9----9-9----9-|
|-10-10-----10-----10-----10---|
|------------------------------|
|------------------------------|
|--0----0--------7----7-9----9-|
|---------9----9---------------|
   Q    E Q    E Q    E Q    E


  Q  E +E   E E +Q   E E E E   Q  E E E E E E E  E S S E
|-9--9-(9)----9-(9)--------0-|----0---0-------0----------|
|----------10------------0---|-9--------0-----0-^0-----0-|
|----------------------------|-9----7-----0h1---^1---0---|
|-7--7-----------------------|------6------------2-------|
|-------9-----9--7---7-------|------7--------------------|
|----------------------9-----|-0----------0--------------|
  Q  E  Q     E  Q   E Q   E   Q  E Q   E Q   E  Q     E


  E S S E E E E Q  E Q.         Q  E Q  E Q  E Q  E
|-----------------------------|---------------------|
|-1-----0---------------------|----2------3----1--2-|
|-2---2---2-1-----------------|----2------2----2--2-|
|---------0---2-1--0----------|-----------4----3----|
|--------------------3b3.5--0-|---------------------|
|-2-------------2-------------|-0----3--2----1------|
  Q     E Q   E Q  E Q      E


                Q=140   Q=146
  Q.    E S S E  Q  +E  Q   E
|-------------0-!0--(0)-------|
|-----------0---!0--(0)-------|
|-------1-------!1------4---5-|
|-------2-------!2------------|
|-0-------------!2---0--------|
|-----0----------0------------|
  Q   E Q     E  Q   E  Q.


  Q=148
  Q  E +E  E E Q  E  E  E E   +E  E E Q  E +E  E E Q  E
|----7-(7)-----5--5-(5)---7-|-(7)-----5--5-(5)-----------|
|----8-(8)-----7--5-(5)---8-|-(8)-----7--5-(5)-----------|
|-6----------6-------5--6---|-------6------------4-5--6--|
|---------------------------|----------------------------|
|-------0------------0------|---------0------------0-----|
|-0------------0------------|--0------------0------------|
  Q  E  Q    E Q  E  Q    E    Q    E Q  E  Q    E Q  E


  +E  E E +E  E E Q  E  E  E E
|-------7-(7)-----5--5-(5)---7-|
|-------8-(8)-----7--5-(5)---8-|
|-(6)-----------6-------5--6---|
|------------------------------|
|----------0------------0------|
|--0--------------0------------|
   Q    E  Q    E Q  E  Q    E


  +E  E E Q  E +E  E E Q  E   E E E E E E Q  E Q  E
|-(7)-----5--5-(5)----------|-----------------------|
|-(8)-----7--5-(5)----------|---5-----3-------------|
|-------6-------------------|-5---5-4---4-2---------|
|--------------------2-3--4-|----------------2-3--4-|
|---------0-----------------|-----------------------|
|--0------------0----3-4--5-|-5-----3-----2--3-4--5-|
   Q    E Q  E  Q    E Q  E   Q   E Q   E Q  E Q  E


  E E E E E E Q  E  Q   E   Q  E +E  E E Q  E  E  E E
|-------------------------|----7-(7)-----5--5-(5)---7-|
|---5-----3---------------|----8-(8)-----7--5-(5)---8-|
|-5---5-4---4-2-----4---5-|-6----------6-------5--6---|
|-------------------------|---------------------------|
|----------------0-(0)----|-------0------------0------|
|-5-----3-----2-----------|-0------------0------------|
  Q   E Q   E Q  E +Q   E   Q  E  Q    E Q  E  Q    E


  +E  E E Q  E +E  E E Q  E
|-(7)-----5--5-(5)---0-2--3-|
|-(8)-----7--5-(5)---2-3--4-|
|-------6-------------------|
|---------------------------|
|---------0------------0----|
|--0------------0-----------|
   Q    E Q  E  Q    E Q  E


  Q  E  Q   E  Q   E  Q   E   E E E  E   E  E Q  E Q.
|-4--0-(0)---------0-(0)----|-------------------------------|
|-5-----3---0-(0)--3--------|-1---0-(0)---------------------|
|-------4------1------------|---2----2---1------------------|
|-6------------2------------|--------0--(0)-2-1--0----------|
|---------------------------|----------------------3b3.5--0-|
|---------------------0---1-|-2---------------2-------------|
                              Q   E  E  +E  E Q  E Q      E


  +Q   E +Q   E Q  +E  E E E
|----------------------------|
|------2-(2)----3--(3)-1---0-|
|------2-(2)-------------2---|
|-------------4-----3--------|
|-(0)------------------------|
|--0------3-----2------1-----|
   Q   E  Q   E Q   E  Q   E


  Q  +E   E  E E +Q    E  Q.
|--------------0-(0)------------|
|------------3------------------|
|-2--(2)------------------------|
|-----------------2---(2)-------|
|-0-------2---------------------|
|-----0--(0)--------------0-----|
  Q   E  +Q    E  Q   +E  Q   E


  Q=146
  E E E E E E Q  E Q  E   E E E Q  E Q  E E E E
|-9---9-9---9-9--9-9--9-|-9---9-9--9-9--9-9---9-|
|---0-----0-------------|---0---------------0---|
|-----------------------|-----------------------|
|-----------------------|-7---7-----------------|
|-0---0-------7--7-9--9-|-------9--9-7--7-------|
|-------9---9-----------|-----------------9---9-|
  Q   E Q   E Q  E Q  E   Q   E Q  E Q  E Q   E


  E E E E E E Q  E Q  E   E E E Q  E Q  E E E E   Q  E Q  E +Q   E +E  E E
|-9---9-9---9-9--9-9--9-|-9---9-9--9-9--9-9---9-|-8--8-7--7-(7)------------|
|---0-----0-------------|---0---------------0---|-7--7---------------------|
|-----------------------|-----------------------|--------------------------|
|-----------------------|-7---7-----------------|-0----------7---7-(7)-7---|
|-0---0-------7--7-9--9-|-------9--9-7--7-------|------9--9---------9----9-|
|-------9---9-----------|-----------------9---9-|--------------------------|
  Q   E Q   E Q  E Q  E   Q   E Q  E Q  E Q   E   Q  E Q  E  Q   E  Q    E


  Q  E Q  E +Q   E +E  E E   E E E E E E Q  E Q  E   E E E Q  E Q  E E E E
|-8--8-7--7-(7)------------|-9---9-9---9-9--9-9--9-|-9---9-9--9-9--9-9---9-|
|-7--7---------------------|---0-----0-------------|---0---------------0---|
|--------------------------|-----------------------|-----------------------|
|-0----------7---7-(7)-7---|-----------------------|-7---7-----------------|
|------9--9---------9----9-|-0---0-------7--7-9--9-|-------9--9-7--7-------|
|--------------------------|-------9---9-----------|-----------------9---9-|
  Q  E Q  E  Q   E  Q    E   Q   E Q   E Q  E Q  E   Q   E Q  E Q  E Q   E


  Q  E E E E  Q   E E E E
|-4--4-0---0-(0)--0-----0-|
|--------4----3-----3-4---|
|-4-----------4-----------|
|-------------------------|
|-------------------------|
|------0------------0-----|
  Q  E Q   E  Q   E Q   E


  E E E E  E  E Q  E Q.         +Q   E Q.    Q  E E E E
|-----------------------------|-------------------------|
|-1---0-----------------------|------2-------3----1---0-|
|---2---2--1------------------|------2--------------2---|
|-------0-(0)-2-1--0----------|------------4----3-------|
|--------------------3b3.5--0-|-(0)---------------------|
|-2-------------2-------------|--0-----3-----2----1-----|
  Q   E E +E  E Q  E Q      E    Q   E Q   E Q  E Q   E


                             Q=148
  Q   E  E E E Q   E  Q  E   Q  E +E  E E Q  E  E  E E
|------------0-0--(0)------|----7-(7)-----5--5-(5)---7-|
|----------3---------------|----8-(8)-----7--5-(5)---8-|
|-2--(2)--------------4--5-|-6----------6-------5--6---|
|--------------2-----------|---------------------------|
|-0------2---------0-------|-------0------------0------|
|-----0--------------------|-0------------0------------|
                             Q  E  Q    E Q  E  Q    E


  +E  E E Q  E +E  E E Q  E
|-(7)-----5--5-(5)----------|
|-(8)-----7--5-(5)----------|
|-------6------------4-5--6-|
|---------------------------|
|---------0------------0----|
|--0------------0-----------|
   Q    E Q  E  Q    E Q  E


  +E  E E +E  E E Q  E  E  E E
|-------7-(7)-----5--5-(5)---7-|
|-------8-(8)-----7--5-(5)---8-|
|-(6)-----------6-------5--6---|
|------------------------------|
|----------0------------0------|
|--0--------------0------------|
   Q    E  Q    E Q  E  Q    E


  +E  E E Q  E +E  E E Q  E   E E E E E E Q  E Q  E
|-(7)-----5--5-(5)----------|-----------------------|
|-(8)-----7--5-(5)----------|---5-----3-------------|
|-------6-------------------|-5---5-4---4-2---------|
|--------------------2-3--4-|----------------2-3--4-|
|---------0-----------------|-----------------------|
|--0------------0----3-4--5-|-5-----3-----2--3-4--5-|
   Q    E Q  E  Q    E Q  E   Q   E Q   E Q  E Q  E


  E E E E E E Q  E  Q   E   Q  E +E  E E Q  E  E  E E
|-------------------------|----7-(7)-----5--5-(5)---7-|
|---5-----3---------------|----8-(8)-----7--5-(5)---8-|
|-5---5-4---4-2-----4---5-|-6----------6-------5--6---|
|-------------------------|---------------------------|
|----------------0-(0)----|-------0------------0------|
|-5-----3-----2-----------|-0------------0------------|
  Q   E Q   E Q  E +Q   E   Q  E  Q    E Q  E  Q    E


  +E  E E Q  E +E  E E Q  E
|-(7)-----5--5-(5)---0-2--3-|
|-(8)-----7--5-(5)---2-3--4-|
|-------6-------------------|
|---------------------------|
|---------0------------0----|
|--0------------0-----------|
   Q    E Q  E  Q    E Q  E


  Q  E  Q   E  Q   E  Q   E   E E E  E   E  E Q  E Q.
|-4--0-(0)---------0-(0)----|-------------------------------|
|-5-----3---0-(0)--3--------|-1---0-(0)---------------------|
|-------4------1------------|---2----2---1------------------|
|-6------------2------------|--------0--(0)-2-1--0----------|
|---------------------------|----------------------3b3.5--0-|
|---------------------0---1-|-2---------------2-------------|
                              Q   E  E  +E  E Q  E Q      E


  +Q   E +Q   E Q  +E  E E E
|----------------------------|
|------2-(2)----3--(3)-1---0-|
|------2-(2)-------------2---|
|-------------4-----3--------|
|-(0)------------------------|
|--0------3-----2------1-----|
   Q   E  Q   E Q   E  Q   E


                 Q=142
  Q  +E   E  E E  Q  +Q   E E   +W         E Q.
|--------------0--3--(3)------|-(3)---------------*|
|------------3----2--(2)------|-(2)---------------*|
|-2--(2)----------2--(2)------|-(2)---------------*|
|-----------------2--(2)------|-(2)---------------*|
|-0-------2------^0--(0)------|-(0)---------------*|
|-----0--(0)------------------|-------------------*|
  Q   E  +Q    E  Q  +Q   E E
Добавлено: 07.12.2015
Другие материалы по этой песне:

Страница создана 07.12.2015
http://primanota.ru/willie-brown/mississippi-blues-chords.htm
Привет, Гость.
Предлагаем пройти революционный курс по гитаре.
Подарок от PrimaNota.Ru, забирай!