PrimaNota.ru - самый крупный в мире бесплатный архив песенных текстов, аккордов, табулатур и нот


William Ross - A Kings Sadness - таба, видео

Регистрация Запомнить меня
Войти через:  Facebook Google Twitter Vk Yandex Mail.ru

William Ross - A Kings Sadness - таба, видео

Печатать
Просмотров: 488
Уроки эстрадного вокала в Санкт-Петербурге
The King's song being played to his wife in the movie "The Tale of Desperaux"
When I heard this I went insane looking for tabs... no one seem to have them only some 
so I went from there but finally I got something..
  http://www.williamrossmusic.com/

E ----5---5---6-5-6----------6--5-----------------------5-|
B ------8---6----------8-6-8----------6-5-6---8-6-5---8---|
G ------------------------------------------7-------------|
D --------------------------------------------------------|
A --------------------------------------------------------|
E --------------------------------------------------------|

E ---------------------5---5---6h8p6-5-6-----------------|
B -----6-5-6--6-5-6------8---6---------------------------|
G -------------------------------------------------------|
D -------------------------------------------------------|
A -------------------------------------------------------|
E -------------------------------------------------------|

E ---------8-6-5-----------------------5-----------------|
B ---8-6-8---------6-5-6-----8-6-5---8----6-5-6---6-5-6--|
G -----------------------7-------------------------------|
D -------------------------------------------------------|
A -------------------------------------------------------|
E -------------------------------------------------------|

E -R--5---5-------6h8p6-5-6---------8-6-5--------|
B -E----8-----6---------------8-6-8--------------|
G -P---------------------------------------------|
D -E---------------------------------------------|
A -A---------------------------------------------|
E -T---------------------------------------------|


E -----------------------5--------------------5---5-------6h8p6---5-6-------|
B ---6-5-6----6h8p6--5-8-------6-5-6--6-5-6-----8----6----------------------|
G ---------7----------------------------------------------------------------|
D --------------------------------------------------------------------------|
A --------------------------------------------------------------------------|
E --------------------------------------------------------------------------|

                                       At the end of this go back to REPEAT
E -----------8h6-5----------------------------5---------------|
B ---8-6-8--------------6-5-6-----6h8p6--5--8-----6-5-6--6-56-|
G ----------------------------7-------------------------------|
D ------------------------------------------------------------|
A ------------------------------------------------------------|
E ------------------------------------------------------------|
Добавлено: 11.04.2012
Вам также может быть интересно:
Другие материалы по этой песне:

Страница создана 11.04.2012
http://primanota.ru/william-ross/a-kings-sadness-chords.htm
Привет, Гость.
Предлагаем пройти революционный курс по гитаре.
Подарок от PrimaNota.Ru, забирай!