PrimaNota.ru - самый крупный в мире бесплатный архив песенных текстов, аккордов, табулатур и нот


William P Mackay - Revive Us Again - таба, видео

Регистрация Запомнить меня
Войти через:  Facebook Google Twitter Vk Yandex Mail.ru

William P Mackay - Revive Us Again - таба, видео

Печатать
Просмотров: 40
-------------------------------------------------------------------------------
                             revive us again - William P. mackay
-------------------------------------------------------------------------------
Tabbed by:
E-mail:
key of F
Tuning:E-A-D-G-B-e

e|---------------------------------------------------------------------------|
B|--------------------------------------------------1--1--1----3---1---------|
G|--------------------------0---2---2--2---2---------------------------2--2--|
D|-----3------3--3--3---3-----------------------3---3--3--3----3---3------3--|
A|-3---3------3--3--3---3---3---3---3--3---3----3----------------------3-----|
E|---------------------------------------------------------------------------|
  we praise thee O God for the Son of thy love for Jesus who died and is now
e|---------------------------------------------------------------------------|
B|---------------------------------------------------------------------------|
G|-0---0--0------------------------------------------------------------------|
D|-2---2--2------------------------------------------------------------------|
A|---------------------------------------------------------------------------|
E|---------------------------------------------------------------------------|
  gone above 
e|---------------------------------------------------------------------------|
B|------1--1--3-1-----------------1--1--3--1------1--1--3--1-----------------|
G|------------------2----0--------------------2-0--------------2----0--------|
D|------3--3--3-3---3--------3--3-3--3--3--3--3-2-3--3--3--3---3--------3--3-|
A|-----------------------3---3--3-----------------------------------3---3--3-|
E|---------------------------------------------------------------------------|
chorus hallelujah thine the glory hallelujah amen hallelujah thine the glory 
e|---------------------------------------------------------------------------|
B|---------------------------------------------------------------------------|
G|-2--3---2--0---------------------------------------------------------------|
D|-3--3---3--2-3-------------------------------------------------------------|
A|-------------3-------------------------------------------------------------|
E|---------------------------------------------------------------------------|
  revive us again

we praise thee O God for thy spirit of light 
who hath shown us our savior and scattered our night
 
(repeat chorus)

all glory and praise to the lamb that was slain
who hath borne all our sins and hath cleansed every stain

(repeat chorus)

revive us again fill each heart with thy love
may each soul be rekindled with fire from above

(repeat chorus)
Добавлено: 17.06.2016
Другие материалы по этой песне:
  • Аккорды и текст

Страница создана 17.06.2016
http://primanota.ru/william-p-mackay/revive-us-again-chords.htm
Привет, Гость.
Предлагаем пройти революционный курс по гитаре.
Подарок от PrimaNota.Ru, забирай!