PrimaNota.ru - самый крупный в мире бесплатный архив песенных текстов, аккордов, табулатур и нот


William Fitzsimmons - Pittsburgh - аккорды и текст, видео

Регистрация Запомнить меня
Войти через:  Facebook Google Twitter Vk Yandex Mail.ru

William Fitzsimmons - Pittsburgh - аккорды и текст, видео

Печатать
Просмотров: 133
Pittsburgh
William Fitzsimmons
Hey, i couldn't find any tabs to this song, so i tried to write them out of his 'live performance video'.

There might be some errors, but it sounds pretty good this way i think. Maybe somebody can improve them. 

The rythm is not accurate, i just tried to write the tabs down.

Have fun! :)



William Fitzsimmons - Pittsbourgh


Tuning: Double Drop-D (G-A-D-G-B-D)


Intro: 2x
                       Asus4/D
     D5                       Dsus2   A/D   G/D                D5
d|---0---0---0----0-------------0------0-----0-----------------0----|
B|---3---3---3----3-------------3------2-----3-----------------3----|
G|---2---2---2----2----0--2--0--2------2-----0-----------------2----|
D|---0---0---0----0--4----------2------2-----0-----------------0----|
A|---0--h2---0----0-------------0------0-----2--0--2--0-----0--0----|
D|---0---0---0----0-------------0------0-----0-----------5-----0----|


Verse:

D5                        Dsus2 A/D
   Should you survive the fall

G/D                      D5
   from branches we have climbed 

                        Dsus2 A/D      
   and lost yourself in years

G/D                   D5 
   the ones we left behind


Interlude:
                  Asus4/D
       D5          Dsus2   A/D   G/D                D5
d|-----0-------------0------0-----0-----------------0-------------|
B|-----3-------------3------2-----3-----------------3-------------|
G|-----2----0--2--0--2------2-----0-----------------2-------------|
D|-----0--4----------2------2-----0-----------------0-------------|
A|-----0-------------0------0-----2--0--2--0-----0--0-------------|
D|-----0-------------0------0-----0-----------5-----0-------------|


Verse:

D5                      Dsus2 A/D
   Should rivers run between 

G/D                      D5
   your frozen heart and mine 

                         Dsus2 A/D
   and words we spoke so young

G/D                     D5
   were cast before our time


Refrain:

     A/D                G         A/D               G     G/D    
d|----2-----------------0----------2----------------0------0------0--------|
B|----2-----------------0----------2----------------0------3------3--------|
G|----2-----------------4----------2----------------4------0------2--------|
D|----2-----------------0----------2----------------0------0------0--------|
A|----0-----------------5----------0----------------5------2------0--------|
D|----0-----------------5----------0----------------5------0------0--------|
          I'll come for you          if you want me to



Interlude:
                  Asus4/D
       D5          Dsus2   A/D   G/D                  D5                                     
d|-----0-------------0------0-----0-------------------0--------------------------------------0--|
B|-----3-------------3------2-----3-------------------3--------------------------------------3--|
G|-----2----0--2--0--2------2-----0-------------------2----2-h4-p2-p0------------------------2--|
D|-----0--4----------2------2-----0--------0--2--2/4--0--------------------2-h4-p2-p0--------0--|
A|-----0-------------0------0-----2--0--2-------------0--------------------------------------0--|
D|-----0-------------0------0-----0-------------------0--------------------------------------0--|


Verse:

D5                          Dsus2 A/D
   Should all your sons forgive 

G/D                         D5
   their fathers where they fell 

                         Dsus2 A/D
   and wrap them for the cold

G/D                      D5
   to rest their winters well


Refrain:

A/D              G    A/D             G
   I'll come for you   if you want me to

A/D              G    A/D             G  G/D           D5
   I'll come for you   if you want me to,    Pittsburgh


Outro:

                  Asus4/D
       D5          Dsus2   A/D   G/D                D5
d|-----0-------------0------0-----0-----------------0-------------|
B|-----3-------------3------2-----3-----------------3-------------|
G|-----2----0--2--0--2------2-----0-----------------2-------------|
D|-----0--4----------2------2-----0-----------------0-------------|
A|-----0-------------0------0-----2--0--2--0-----0--0-------------|
D|-----0-------------0------0-----0-----------5-----0-------------|
                                     rit.           hold



Добавлено: 17.06.2016
Вам также может быть интересно:
Другие материалы по этой песне:
  • Аккорды и текст

Страница создана 17.06.2016
http://primanota.ru/william-fitzsimmons/pittsburgh-chords.htm
Привет, Гость.
Предлагаем пройти революционный курс по гитаре.
Подарок от PrimaNota.Ru, забирай!