PrimaNota.ru - самый крупный в мире бесплатный архив песенных текстов, аккордов, табулатур и нот


Бёрд Уильям - Pavane To The Earl Of Salisbury - таба, видео

Регистрация Запомнить меня
Войти через:  Facebook Google Twitter Vk Yandex Mail.ru

Бёрд Уильям - Pavane To The Earl Of Salisbury - таба, видео

Печатать
Просмотров: 227
Уроки эстрадного вокала в Санкт-Петербурге
Pavanne: The Earl of Salisbury
~~~~~~~~~~~~~~~~~~~~~~~~~~~~~~
By: William Byrd (1543-1623)
Arranged by: John Kean

Standard tuning.
4/4 time.


    , . , . , . , .   , . , . , . , .   , .  , . , . , .   , . , . , . , .
||------5-------8---|-7-----------0---|-2--4-5-------4---|-5-----------5---|
||--5---------------|-5-----------0-1-|-3--------3-------|-2---------------|
||*-5---------------|-4---------------|-2--------4-------|-------2---------|
||*-7-----7---------|-----6-4-6-7-----|-0----------------|---------2-------|
||--7-------7-------|---------7-------|--------4-2-------|-0---------------|
||--5---------------|-0---------------|------------------|-----------------|


  , . , . , . , .   , . , . , . , .   , . , . , . , .   , . , . , . , .
|-8---------8-7-5-|-7---------7-5-3-|-5-----------5---|-4----------------||
|-----5---6-------|---6-5---5-------|---5-3---3-------|-0-----------0----||
|-----------------|-------7-5-------|-------5---5-4-2-|-----------------*||
|-7---------------|-5---------------|-3---------------|-2-----------2---*||
|-----------------|-----------------|-----------------|-------2----------||
|-----------------|-----------------|-----------------|---------0--------||


    , . , . , . , .   , . , . , . , .   ,  .  ,  .  ,  .  ,  .
||------------------|-0-----------3---|-8----------10-----------|
||--1-------3-------|-1-----3-1---5---|------10----------12-----|
||*-----2-------4---|-0---------------|------10----------12-----|
||*-----3-------5---|-----------------|---10----------12--------|
||----3-------5-----|-3---------------|-------------------------|
||------------------|-----------------|-------------------------|


   , . , .  ,  .  ,  .     ,  .  ,  .  ,  .  ,  .   ,  .  ,  .  ,  .  ,  .
|-12----10-------H12----|-------10-------12-------|-7-----------------7--8-|
|----------13-----------|-12----------------13----|---------10--9-10-------|
|-12--------------------|-------------------------|-------9-----------7----|
|-10--------------------|-------------------------|------------------------|
|----------12-----------|-11----------------12----|-7----------------------|
|-----------------------|-------------------------|------------------------|

                      .................... ...................
                       1.                |  2.               |
  ,  .  ,  . , . , .   , . , . , . , .   |  , . , . , . , .  |
|-7------------------|-5----------------||--5---------------||
|---10-10--------9---|-5----------------||--5---------------||
|------------------7-|-6-----------0---*||--6-7-6h7p6-------||
|------10----9-------|-------------2---*||------------------||
|-7----------7-------|-0----------------||--0---------------||
|------------0-------|------------------||------------------||



http://www.elizabethan-era.org.uk/william-byrd.htm
Добавлено: 08.05.2012
Другие материалы по этой песне:
  • Аккорды и текст

Страница создана 08.05.2012
http://primanota.ru/william-byrd/pavane-to-the-earl-of-salisbury-chords.htm
Привет, Гость.
Предлагаем пройти революционный курс по гитаре.
Подарок от PrimaNota.Ru, забирай!